Artist: Duran Duran
Song Title: Last Chance On The Stairway
Album: Rio (1982)
Song Duration: 04:19 min
Tabbed by: Vuk Krajacic ([email protected]) 


Instructions:

(    ) - Song time elapsed

/ - Slide up

 - Slide down



Main riff (00:11)
    
G-------------------9-7--------------------------77-77--------------|
D----7-55-------------------------5-33-----------------5-5-6-6------|
A--0------5-7-0------------------------3-5-0---5--------------------|
E-----------------0-----0-1-2---3-----------------------------------|

G-------------------9-7---------------------------7-7---|
D----7-55-------------------------5-33------------------|
A--0------5-7-0------------------------3-5-0---5--------|
E-----------------0-----0-1-2---3-----------------------|

G-------------------9-7--------------------------77-77--|
D----7-55-------------------------5-33------------------|
A--0------5-7-0------------------------3-5-0---5--------|
E-----------------0-----0-1-2---3-----------------------|

G-------------------9-7--------------------------77-77--|
D----7-55-------------------------5-33------------------|
A--0------5-7-0------------------------3-5-0---5--------|
E-----------------0-----0-1-2---3-----------------------|

G-------------------9-7--------------------------77-77--|
D----7-55-------------------------5-33------------------|
A--0------5-7-0------------------------3-5-0---5--------|
E-----------------0-----0-1-2---3-----------------------|


Chorus (00:46)

G--------------------------------------------------|
D--0--1---2--4-5-5---------------------------------|
A-------------------2--4-5-5--5--7-9-9--0--22-444--|
E--------------------------------------------------|

G-----------------------------------------------|
D---------------------------------3-3-3--3-5----|
A-------------2--4-5-5--5--7-9-9----------------|
E--0--02-3-3------------------------------------|


Main riff (01:01)

G-------------------9-7--------------------------77-77---------|
D----7-55-------------------------5-33-----------------5--6----|
A--0------5-7-0------------------------3-5-0---5---------------|
E-----------------0-----0-1-2---3------------------------------|

G-------------------9-7--------------------------77-77--------------|
D----7-55-------------------------5-33-----------------5-5-6-6------|
A--0------5-7-0------------------------3-5-0---5--------------------|
E-----------------0-----0-1-2---3-----------------------------------|

G-------------------9-7--------------------------77-77--|
D----7-55-------------------------5-33------------------|
A--0------5-7-0------------------------3-5-0---5--------|
E-----------------0-----0-1-2---3-----------------------|

G-------------------9-7--------------------------77-77--|
D----7-55-------------------------5-33------------------|
A--0------5-7-0------------------------3-5-0---5--------|
E-----------------0-----0-1-2---3-----------------------|

G-------------------9-7--------------------------77-77--|
D----7-55-------------------------5-33------------------|
A--0------5-7-0------------------------3-5-0---5--------|
E-----------------0-----0-1-2---3-----------------------|

G-------------------9-7--------------------------77-77--|
D----7-55-------------------------5-33------------------|
A--0------5-7-0------------------------3-5-0---5--------|
E-----------------0-----0-1-2---3-----------------------|


Chorus (01:44)

G--------------------------------------------------|
D--0--1---2--4-5-5---------------------------------|
A-------------------2--4-5-5--5--7-9-9--0--22-444--|
E--------------------------------------------------|

G--------------------------------------------|
D--------------------------------------------|
A-------------2--4-5-5--5--7-9-9--0--22-444--|
E--0--02-3-3---------------------------------|

G-------------------------------------------|
D--2--4-5-5---------------------------------|
A------------2--4-5-5--5--7-9-9--0--22-444--|
E-------------------------------------------|

G-----------------------------------------------|
D---------------------------------3-3-3--3-5----|
A-------------2--4-5-5--5--7-9-9----------------|
E--0--02-3-3------------------------------------|


Break (02:13)

G------------------------|
D----2-0-5-5----4-5-6-6--|
A-------------4----------|
E--0---------------------|

G------------------------|
D----2-0-5-5----4-5-6-6--|
A-------------4----------|
E--0---------------------|

G------------------------|
D----2-0-5-5----4-5-6-6--|
A-------------4----------|
E--0---------------------|

G-------------------------|
D-------------------------|
A--3-33-33---5-55-55-5-6--|
E-------------------------|

G------------------------|
D----2-0-5-5----4-5-666--|
A-------------4----------|
E--0---------------------|

G------------------------|
D----2-0-5-5----4-5-666--|
A-------------4----------|
E--0---------------------|

G------------------------|
D----2-0-5-5----4-5-666--|
A-------------4----------|
E--0---------------------|

G-----------------------------|
D----------------------5---5--|
A--3-33-33---5-55-55-5---3----|
E-----------------------------|


Mid section (02:41)

G-------------------9--9/-------------------7--7---|
D-------7--7--------------------5--5/--------------|
A--------------7--7--7-----------------5--5--5-----|
E--5--5--5--5--------------3--3--3-----------------|


G-------------------9--9/----------------77-------|
D-------7--7--------------------5--5/---------56-|
A--------------7--7--7-----------------5----4-----|
E--5--5--5-----------------3--3--3----------------|


Main riff (02:55)

G-------------------9-7--------------------------77-77--|
D----7-55-------------------------5-33------------------|
A--0------5-7-0------------------------3-5-0---5--------|
E-----------------0-----0-1-2---3-----------------------|

G-------------------9-7--------------------------77-77--|
D----7-55-------------------------5-33------------------|
A--0------5-7-0------------------------3-5-0---5--------|
E-----------------0-----0-1-2---3-----------------------|

G-------------------9-7--------------------------77-77--|
D----7-55-------------------------5-33------------------|
A--0------5-7-0------------------------3-5-0---5--------|
E-----------------0-----0-1-2---3-----------------------|

G-------------------9-7--------------------------77-77--|
D----7-55-------------------------5-33------------------|
A--0------5-7-0------------------------3-5-0---5--------|
E-----------------0-----0-1-2---3-----------------------|


Chorus (03:24)

G--------------------------------------------------|
D--0--1---2--4-5-5---------------------------------|
A-------------------2--4-5-5--5--7-9-9--0--22-444--|
E--------------------------------------------------|

G--------------------------------------------|
D--------------------------------------------|
A-------------2--4-5-5--5--7-9-9--0--22-444--|
E--0--02-3-3---------------------------------|

G-------------------------------------------|
D--2--4-5-5---------------------------------|
A------------2--4-5-5--5--7-9-9--0--22-444--|
E-------------------------------------------|

G-----------------------------------|
D-----------------------------------|
A-------------2--4-5-5--5--7-9-9----|
E--0--02-3-3------------------------|


Outro (03:53)

G--------------------------------------|
D--------------------------------------|
A-----------2-2-2-4-5-5-5-5--0-0-------|
E--0-0-0-0------------------------3-2--|



Repeat outro until fade out and end.



Please send your comments to [email protected]


Текст, аккорды и табулатура для песни "Last Chance On The Stairway", исполняет "Duran Duran".
Используемые в песне аккорды можно найти в разделе Как брать аккорды. Аккорды для шестиструнной гитары. Другие песни можно найти на нашем сайте, воспользовавшись алфавитным указателем вверху страницы.


Слушать онлайн Last Chance On The Stairway


Duran DuranLast Chance On The Stairway на Яндекс.Музыке


 
Ошибка в тексте? Выделите ошибку и нажмите Ctrl+Enter