b- bend string whole step	
/- slide up
- slide down
x- dont play string
Tuning- (low to high) CGCFAD


Intro: (Use flanger Effect)
D------------------------------------
A------------------------------------
F--8-8-8-8-8/7-----------------------
C--x-x-x-x-x-x-------------------------------------10x
G--6-6-6-6-6/5---00--0--0-0-0--0-0---
C----------------00--0--0-0-0--0-0---
P.M.             --  -  - - -  - -


Intro 2: 
Intro 2: (Heavy Octave Part)
D------------------------------------------------------------------------------
A------------------------------------------------------------------------------
F--14-14--14-14--14-14--14-14--12-12-12-12-12-12--11-11--11-11--11-11--11-11---
C---x--x---x--x---x--x---x--x---x--x--x--x--x--x---x--x---x--x---x--x---x--x--- 2x
G--12-12--12-12--12-12--12-12--10-10-10-10-10-10---9--9---9--9---9--9---9--9---
C---0--0---0--0---0--0---0--0---0--0--0--0--0--0---0--0---0--0---0--0---0--0---

Verse: 

D-------------------------------------------
A-------------------------------------------
F---------------------8-8-8-8-8/7---------
C---------------------x-x-x-x-x-x--------8 1/2x  
G-------00--00--00--006-6-6-6-6/5---------
C-------00--00--00--00-----------------------          
P.M.    --  --  --  --                                                              
On the 4th time doing of the verse on both verses C.J.
does this:
G-----00--00--00--00--000000----
C-----00--00--00--00--000000----
P.M.  --  --  --  --  ------

Fill in Before First Chorus:
D--------------------------
A--------------------------
F----8-8-8-8--------------
C----x-x-x-x---------  1x
G----6-6-6-6---10/------
C----------------10/-----


Chorus: w/distortion
D----------------------------------------------
A----------------------------------------------
F----------------------------------------------
C--0-0-0-x-x--0-0-x-x-x--8-8-8-8-8-5-5-5-5-5-5--  3x then 5x 2nd time
G--0-0-0-5-5-0-0-5-5-5--8-8-8-8-8-5-5-5-5-5-5--
C--0-0-0-0-0-0-0-0-0-0--8-8-8-8-8-5-5-5-5-5-5--


Fill Before 2nd Chorus: w/distortion
D------------------
A------------------
F------------------ 1x
C------------------
G------------------
C----12/-----------


Bridge: w/ distortion  
D-----------------------------------
A-----------------------------------
F-----------------------------------
C--1-0--1-0--1-0----1-0--1-0--1-0---  1x
G--1-0--1-0--1-0----1-0--1-0--1-0---
C--1-0--1-0--1-0----1-0--1-0--1-0---


Solo: listen to the song to see how many time each note with a (*) over it, how many times it is 
played im not going
to put all the notes on there!! 
         *     *     *     *                  *    *    *  
D---17--15--18--17--13--12--10--8--11/--20b-20b-20b
A-------------------------------------------------------------------
F-------------------------------------------------------------------
C-------------------------------------------------------------------  1x
G------------------------------------------------------------------
C------------------------------------------------------------------
                                                                     *     *     * 
D---20-19-18-19-18-19/--8-9-8-9-8-9-8/----------------
A----------------------------------------------------13--12--10/
F------------------------------------------------------------------
C-----------------------------------------------------------------
G-----------------------------------------------------------------
C-----------------------------------------------------------------

After the solo play the chorus 3x then this:

Outro: Use Light Distortion (Leave out last 0 on 2nd time)
D-------------------------------------
A-------------------------------------
F-------7----7/------3---37-----7------
C-0-0----0-----0-0---0-----0-0---0----  2x
G-------------------------------------
C-------------------------------------

Hint: If you have a Wah Pedal..Slightly press it down to give
the outro that cool effect!!


Текст, аккорды и табулатура для песни "Tear Away", исполняет "Drowning Pool".
Используемые в песне аккорды можно найти в разделе Как брать аккорды. Аккорды для шестиструнной гитары. Другие песни можно найти на нашем сайте, воспользовавшись алфавитным указателем вверху страницы.


Слушать онлайн Tear Away


Drowning PoolTear Away на Яндекс.Музыке


 
Ошибка в тексте? Выделите ошибку и нажмите Ctrl+Enter