Artist: Drowning Pool
Song: Tear Away

Transicribed by: Josh Minnish
Email: [email protected]

Drop C Tuning (CGCFAD)

This song rocks man!! I havent seen good enough tabs so I did it my self!! It 
sounds close to me!! I also Finally did the Solo right and Outro!! Enjoy!! 


Intro: (Use flanger Effect)
D------------------------------------
A------------------------------------
F--8-8-8-8-8/7-----------------------
C--x-x-x-x-x/x-----------------------  10x
G--6-6-6-6-6/5--0-0--0--0-0-0--0-0---
C---------------0-0--0--0-0-0--0-0---
P.M.            - -  -  - - -  - -


Intro 2: (Heavy Octave Part)
D------------------------------------------------------------------------------
A------------------------------------------------------------------------------
F--14-14--14-14--14-14--14-14--12-12-12-12-12-12--11-11--11-11--11-11--11-11---
C---x--x---x--x---x--x---x--x---x--x--x--x--x--x---x--x---x--x---x--x---x--x--- 2x
G--12-12--12-12--12-12--12-12--10-10-10-10-10-10---9--9---9--9---9--9---9--9---
C---0--0---0--0---0--0---0--0---0--0--0--0--0--0---0--0---0--0---0--0---0--0---


Verse: 
D-----------------------------------------------
A-----------------------------------------------
F--------------------------8-8-8-8-8/7----------
C--------------------------x-x-x-x-x/x----------  8 1/2x
G-0--0-0-0--0-0--0-0-0-0---6-6-6-6-6/5----------
C-0--0-0-0--0-0--0-0-0-0------------------------
P.M. - - -  - -  - - - -


Fill in Before First Chorus:
D--------------------------
A--------------------------
F----8-8-8-8-8-------------
C----x-x-x-x-x---6-6-6-----  1x
G----6-6-6-6-6---6-6-6-----
C----------------6-6-6-----


Chorus:
D----------------------------------------------
A----------------------------------------------
F----------------------------------------------
C--0-0-0-x-x-0-0-x-x-x--8-8-8-8-8-5-5-5-5-5-5--  3x then 5x 2nd time
G--0-0-0-5-5-0-0-5-5-5--8-8-8-8-8-5-5-5-5-5-5--
C--0-0-0-0-0-0-0-0-0-0--8-8-8-8-8-5-5-5-5-5-5--


Fill Before 2nd Chorus:
D------------------
A------------------
F------------------ 1x
C---12/0-----------
G---12/0-----------
C------------------


Bridge:  
D-----------------------------------
A-----------------------------------
F-----------------------------------
C--1-0--1-0--1-0----1-0--1-0--1-0---  1x
G--1-0--1-0--1-0----1-0--1-0--1-0---
C--1-0--1-0--1-0----1-0--1-0--1-0---


Solo: Tremelo Pick each Marked part (/) and Use a Wah Pedal
    /   /   /   /        /   /  / /  /  / /
D-------------------------------------------------------------
A-------------------------------------------13br-13br-13br----
F--14--12--15--14--14h15p14--10-9-7--5--8-7-------------------
C-------------------------------------------------------------  1x
G-------------------------------------------------------------
C-------------------------------------------------------------
   /                           /   /  /  
D-------------------------------------------------------------
A-----8--9-8-9-8--9-8/----------------------------------------
F-12-------------------5-6-5-6-5---3--4b/0--------------------
C-------------------------------------------------------------
G-------------------------------------------------------------
C-------------------------------------------------------------


Outro: Use Light Distortion (Leave out last 0 on 2nd time)
D-------------------------------------
A-------------------------------------
F-----7----7/------3---37-----7------
C-0-0----0-----0-0---0-----0-0---0----  2x
G-------------------------------------
C-------------------------------------

Hint: If you have a Wah Pedal..Slightly press it down to give
the outro that cool effect!!


Текст, аккорды и табулатура для песни "Tear Away", исполняет "Drowning Pool".
Используемые в песне аккорды можно найти в разделе Как брать аккорды. Аккорды для шестиструнной гитары. Другие песни можно найти на нашем сайте, воспользовавшись алфавитным указателем вверху страницы.


Слушать онлайн Tear Away


Drowning PoolTear Away на Яндекс.Музыке


 
Ошибка в тексте? Выделите ошибку и нажмите Ctrl+Enter