Hm                G
Promise that you always will 
Em               G
Keep candles lit on the windowsill 
You know I'll be comin' home 

You know I never wanted to go away 
But what am I supposed to say 
When I hear the sounds of the trumpet call 
Who says 

Hm      D       Em       Hm 
All is fair in love and war 

Your pictures kept close to my heart 
Letters all but fall apart 
Each night I read them over again 

You know I never wanted to go away 
But what am I supposed to say 
When I hear the sounds of the trumpet call 
Who says 

You know I never wanted to go away 
I swear 
Its war


Intro 1: 
||--------------------------------------------------------------------|| 
||--------------------------------------------------------------------|| 
||----------0----------------0---------------0--------------0-------|| 
||-------0----------------0---------------0----0---------0----------|| 
||----5---------0--1--5---------------5----------0-1-5------------|| 
||-0-----------------------------3-5----------------------------3---|| 


Verse:
||--------------------------------------------------------------------|| 
||--------------------------------------------------------------------|| 
||----------0----------------0---------------0--------------0-------|| 
||-------0----------------0---------------0----0---------0----------|| 
||----5---------0--1--5---------------5----------0-1-5------------|| 
||-0-----------------------------3-5----------------------------3---||

||------------------------------------------------------------------------------||
||------------------------------------------------------------------------------||
||------------------------------------------------------------------------------||
||-/--0----8----3-5----8----0p3---0----8----3-5-5-5-5-5-5-5-5-5-------||
||-/--0----8----3-5----8----0p3---0----8----3-5-5-5-5-5-5-5-5-5-------||
||-/--0----8----3-5----8----0p3---0----8----3-5-5-5-5-5-5-5-5-5-------||

||--------------------|| 
||--------------------|| 
||--------------------|| 
||-8-8-8-8-8-8-8---|| 
||-8-8-8-8-8-8-8---|| 
||-8-8-8-8-8-8-8---|| 

Chorus
||--------------------------------------------------------------------------------------||
||--------------------------------------------------------------------------------------||
||--------------------------------------------------------------------------------------||
||-0-0-0----3-3-3-3-3-3-3-3--5-5-5-5-5-5-5-5--3-3-3-3-3-3-3-3--0-0-0-0---||
||-0-0-0----3-3-3-3-3-3-3-3--5-5-5-5-5-5-5-5--3-3-3-3-3-3-3-3--0-0-0-0---||
||-0-0-0----3-3-3-3-3-3-3-3--5-5-5-5-5-5-5-5--3-3-3-3-3-3-3-3--0-0-0-0---||

||--------------------------------------------------------------------------|| 
||--------------------------------------------------------------------------|| 
||--------------------------------------------------------------------------|| 
||-xx-x----3-3-3-3-3-3-3-3--5-5-5-5-5-5-5-5--3-3-3-3-3-3-3-3---|| 
||-xx-x----3-3-3-3-3-3-3-3--5-5-5-5-5-5-5-5--3-3-3-3-3-3-3-3---|| 
||-xx-x----3-3-3-3-3-3-3-3--5-5-5-5-5-5-5-5--3-3-3-3-3-3-3-3---||


Bridge:
||---------------------------|| 
||---------------------------|| 
||------------5--------------|| 
||-0----3----5----5----3---|| 
||-0----3----3----5----3---|| 
||-0----3---------5----3---|| 


Solo:
(Gtr.1)
||-----------------------------------------------------------------------------------------------||
||-----------------------------------------------------------------------------------------------||
||-----------------------------10-12-10-------------------------------------------------------||
||----19^(21)19----10h12-------------12-10-12--12^(12)-10-12-10-----10------------||
||----------------------------------------------------------------------------13------13-12---||
||-0---------------------------------------------------------------------------------------------||

||------------------------------------------------------------------------------------------||
||---/15-15-15-18-15-15-20-15-15-17-15-15-18-15-15-17-17-17-17h18-15---||
||------------------------------------------------------------------------------------------||
||------------------------------------------------------------------------------------------||
||------------------------------------------------------------------------------------------||
||------------------------------------------------------------------------------------------||

||-------------------------------------------|| 
||-17p15-15-15--------------------------|| 
||------------------14^(15)14----14/7---|| 
||-------------------------------------------|| 
||-------------------------------------------|| 
||-------------------------------------------||

(Gtr.2)  X2
||----------------------------------------|| 
||----------------------------------------|| 
||----------------------------------------|| 
||-0----8----3-5--5-5-8-7-5-7-5-3---|| 
||-0----8----3-5--5-5-8-7-5-7-5-3---|| 
||-0----8----3-5--5-5-8-7-5-7-5-3---||


Breakdown:
||---------------------------------------------------------------------------------------|| 
||---------------------------------------------------------------------------------------|| 
||---------------------------------------------------------------------------------------|| 
||-----------------------------------------------------------------8-8-8-8-8-8-8-8---|| 
||-----------------------------------------------------------------8-8-8-8-8-8-8-8---|| 
||-0-0-0-0-0-0-0-0-8-8-8-8-8-8-8-8-3-5-5-5-5-5-5-5-5---8-8-8-8-8-8-8-8---||
   |________________Palm Mute_______________|


Bridge\Outro:
||---------------------------|| 
||---------------------------|| 
||------------5--------------|| 
||-0----3----5----5----3---|| 
||-0----3----3----5----3---|| 
||-0----3---------5----3---||





Текст, аккорды и табулатура для песни "Love and War", исполняет "Drowning Pool".
Используемые в песне аккорды можно найти в разделе Как брать аккорды. Аккорды для шестиструнной гитары. Другие песни можно найти на нашем сайте, воспользовавшись алфавитным указателем вверху страницы.


Слушать онлайн Love & War


Drowning PoolLove & War на Яндекс.Музыке


 
Ошибка в тексте? Выделите ошибку и нажмите Ctrl+Enter