ARTIST:Dropkick Murphys
ALBUM:Blackout
SONG:World Full Of Hate
Email:[email protected]


  Riff 1 Electric guitar (clean tone)
e|-----------------------------------------------------------------|
B|-----------------------------------------------------------------|
G|----------------------------------------0-0-----0-0--------------|
D|-0-----------0-0-0-2-2-2-2-0----------2-------2------------------|
A|---2-0---0-2------------------3-0-2-3-------3-------3-2-0--------|
E|-------3--------------------------------------------------3-5-5~-|


  MAIN RIFF acoustic (played throughout the song)(Verse and chorus)
|--------------------------------------------------------------------------
|-3-3-3-3-3-3-3-3-3-3-3-3--1-1-1-1-1-1-1-1-1-1-1-1-1-1-1-1-1-1-1-1-1-1-1-1-
|-0-0-0-0-0-0-0-0-0-0-0-0--0-0-0-0-0-0-0-0-0-0-0-0-0-0-0-0-0-0-0-0-0-0-0-0-
|-0-0-0-0-0-0-0-0-0-0-0-0--2-2-2-2-2-2-2-2-2-2-2-2-2-2-2-2-2-2-2-2-2-2-2-2-
|-2-2-2-2-2-2-2-2-2-2-2-2--3-3-3-3-3-3-3-3-3-3-3-3-3-3-3-3-3-3-3-3-3-3-3-3-
|-3-3-3-3-3-3-3-3-3-3-3-3--------------------------------------------------


 --------------2-2-2-2-2-2-|
 -3-3-3-3-3-3--3-3-3-3-3-3-|
 -0-0-0-0-0-0--2-2-2-2-2-2-|
 -0-0-0-0-0-0--0-0-0-0-0-0-|
 -2-2-2-2-2-2--------------|
 -3-3-3-3-3-3--------------|


 Clean electric
|-----------|       |-------------|Acoustic plays this during
|-----------|       |-3-3-3-3-3-3-|clean electric part..
|-----------|       |-0-0-0-0-0-0-|
|-----------|       |-0-0-0-0-0-0-|
|-3-2-0-----|       |-2-2-2-2-2-2-|
|-------3-5-|       |-3-3-3-3-3-3-|


That sounds bout right to me great song..listen to song while playing.
awesome band.Comments to e-mail


Текст, аккорды и табулатура для песни "World Full Of Hate", исполняет "Dropkick Murphys".
Используемые в песне аккорды можно найти в разделе Как брать аккорды. Аккорды для шестиструнной гитары. Другие песни можно найти на нашем сайте, воспользовавшись алфавитным указателем вверху страницы.


 
Ошибка в тексте? Выделите ошибку и нажмите Ctrl+Enter