Artist= Dropkick Murphys
Song= Gonna be a Blackout Tonight
This song is off of there new CD Blackout!! Go out and buy it all you punk fans!!
Intro 

G-------------------------------------------------------------------------------
D-----------9------------77-----------------------------------------------------
A----777-----7-----55------55---------------------------------------------------
E-------------------------------------------------------------------------------
Verse

G-------------------------------------------------------------------------------
D-------------------------------------------------------------------------------
A----77777777----55555555----777777777----9999-------5677777777-----------------
E--------------------------------------------------------------7----------------

G-------------------------------------------------------------------------------
D-------------------------------------------------------------------------------
A----55555555-------------------------------------------------------------------
E--------------------55555555----77777777---------------------------------------

Chorus

G-------------------------------------------------------------------------------
D-------------------------------------------------------------------------------
A----5555-------------5555-------------5-/---7777----5-/---7777----5-/---7777---
E--------------5555-------------5555--------------------------------------------

G-------------------------------------------------------------------------------
D-------------------------------------------------------------------------------
A-------------5555------------5555----------------------------------------------
E----7777-------------5555-------------5555-------------------------------------

Middle of Song
G-------------------------------------------------------------------------------
D-------------7^9------------5^7------------------------------------------------
A----7777----------5555-----------3333----22222222------------------------------
E-------------------------------------------------------------------------------

Then Play Intro After That 

After you play the intro you play the chorus again and that is it.

Have fun with this tab!

Note: /: slide up
     ^ : hammer on


Текст, аккорды и табулатура для песни "Gonna Be A Blackout Tonight", исполняет "Dropkick Murphys".
Используемые в песне аккорды можно найти в разделе Как брать аккорды. Аккорды для шестиструнной гитары. Другие песни можно найти на нашем сайте, воспользовавшись алфавитным указателем вверху страницы.


 
Ошибка в тексте? Выделите ошибку и нажмите Ctrl+Enter