C      G         Am                                            
e-0--------------3----------------------0----------------
h-1--------------0---------------1-------------0---------
g|--------0-------0------0-------0-------2-------2------2-----2------
d--------------------------------------------------------
a|----3------------------------------0-------------------------------
e---------3----------------------------------------------

      C               G             Am       
e-0--------------3-----------------------0---------------
h-1--------------0----------------1------------0---------
g|--------0-------0------0-------0--------2-------2-----2-----2------
d--------------------------------------------------------
a|----3------------------------------0-------------------------------
e---------3----------------------------------------------
     Dm               G               C              Am
e-1--------------3----------------0-------------2--------
h-3--------------0----------------1-------------1--------
g|--------2-------2------0-------0--------0-------0------2-----2-----
d|----0--------------------------------------------------------------
a-------------------------3---------------0--------------
e---------3----------------------------------------------
     Dm               E              Am
e-1--------------0------------------------0--------------
h-3--------------0-----------------1------------0--------
g|--------2-------2------1-------1---------2-------2-----2-----2-----
d|----0--------------------------------------------------------------
a-------------------------0------------------------------
e---------0----------------------------------------------

   C            G        Am
В моей любви виновен алкоголь 
      C        G    Am
Быть может это не беда
  Dm         G   C    Am 
Извечная шальная бо-о-оль
  Dm          E      Am
Меня пронзила на всегда 

Ее глаза зеленое стекло 
В которых плещется вино
Иначе быть и не могло 
Меня замучило оно 

У ней спокойный кроткий взгляд
Она как уголь горяча
Кто скажет мне что я не прав
Тот просто напросто козел

Припев:
         C        G          Am
         Ой, да была бы ты моя
            Dm        C      E         Am    G
         Да ты ж не моя , да ты ж не моя а-а-а-а-а
         C         G         Am
         Ой, да была бы ты моя
            Dm        C       E        Dm    G
         Да ты ж не моя , да ты ж не моя а-а-а-а-а
    
Когда она смеется, я смеюсь
Я плачу тоже вместе с ней
Я с нею пью и не напьюсь
Мы белых видели коней

Быть может кто-то скажет: «ты дурак»
А кто-то вспомнит ЛТП 
Но я то знаю все не так
Я просто отдан весь тебе

Припев:

В моей любви виновен алкоголь 
Быть может это не беда 
Извечная шальная боль
Меня пронзила на всегда
   
В конце :
     Am
e-------0--------5-----
h----1---------5-------
g2-----------5---------
d|--------2------------------------
a|----0----------------------------
e----------------------


Текст, аккорды и табулатура для песни "Лирическая", исполняет "Дрынк".
Используемые в песне аккорды можно найти в разделе Как брать аккорды. Аккорды для шестиструнной гитары. Другие песни можно найти на нашем сайте, воспользовавшись алфавитным указателем вверху страницы.


 
Ошибка в тексте? Выделите ошибку и нажмите Ctrl+Enter