Dream theater
The killing hand
Tabbed by: [email protected] ( silkmoth)                        


 

  Gtr II
|---------------------|-----------------|
|-----4-5-(5)-4-(4)---|-----4-5-----4-5-|
|---4---------------4-|---4-------4-----|
|---------------------|-----------------|
|---------------------|-----------------|
|-0-------------------|-0-------2-------|


|---------------------|------------------|
|-----4-5-(5)-4-(4)---|-----4-5----------|
|---4---------------4-|---4---------8-9--|
|---------------------|-----------9------|
|---------------------|------------------|
|-4-------------------|-4-------7--------|


|---------------------|-----------------|----------------|-------------------|
|-----4-5-(5)-4-(4)---|-----4-5---------|----------------|-------------------|
|---4---------------4-|---4---------8-9-|-----8-9-8------|------8-9-8--------|
|---------------------|-----------9-----|---9-------9----|----9-------9----9-|
|---------------------|-----------------|----------------|-------------------|
|-5-------------------|-5-------7-------|-9-----------9--|-11-----------11---|


|------------------------|-------------------------|
|------------------------|--------------------4--5-|
|------8--9--(9)-8-(8)---|--------8--9-----4-------|
|----9-----------------9-|------9------------------|
|------------------------|-------------------------|
|--0---------------------|---0----------2----------|
|
| Gtr IV
|-12---------------------|-------------12----12-14-|
|--------12-(12)---------|-(12)-----12----12-------|
|------------------------|-------------------------|
|------------------------|-------------------------|
|------------------------|-------------------------|
|------------------------|-------------------------|


|------------------------|-------------------------|
|------4--5--(5)-4-(4)---|--------4-5--------------|
|----4-----------------4-|------4---------8--9-----|
|------------------------|--------------9----------|
|------------------------|-------------------------|
|--4---------------------|---4--------7------------|
|
|-12---------------------|-------------------------|
|--------12-(12)---------|-(12)--------------------|
|------------------------|------------------13-14--|
|------------------------|-------------------------|
|------------------------|-------------------------|
|------------------------|-------------------------|


|------------------------|-----------------------------|
|------4--5--(5)-4-(4)---|----------4----5-------------|
|----4-----------------4-|------4-----------------8--9-|
|------------------------|---------------------9-------|
|------------------------|-----------------------------|
|--5---------------------|---5--------------7----------|
|
|------------------------|-----------------------------|
|-12---------------------|-----------------12----12-14-|
|------------------------|-----------------------------|
|--------14-(14)---------|-(14)---(14)--14----14-------|
|------------------------|-----------------------------|
|------------------------|-----------------------------|


|------------------------------|------------------------|
|------------------------------|------------------------|
|------8--9---8----------------|-------8--9--8----------|
|----9-----------9--------9----|----9-----------9----9--|
|------------------------------|------------------------|
|--9-----------------9---------|-11---------------11----|
|
|------------------------------|------------------------|
|-12---------------------------|------------------------|
|------------------------------|------------------------|
|--------14-(14)---(14)--14-16-|-18---19-18-16-14-------|
|------------------------------|------------------14----|
|------------------------------|------------------------|


|------------------------|-------------------------|
|------------------------|--------------------4--5-|
|--------8--9--8-------8-|--------8--9-----4-------|
|------9---------9-(9)---|------9------------------|
|------------------------|-------------------------|
|---0--------------------|---0----------2----------|
|
|------------------------|-------------12----12-14-|
|------------------------|----------12----12-------|
|------------------------|-------------------------|
|------------------------|-------------------------|
|-(14)-----12-11---------|-(11)--------------------|
|------------------------|-------------------------|


|------------------------|----------------------------|
|------4--5---4--------4-|--------4-5-----------------|
|----4-----------4-(4)---|------4------------8--9-----|
|------------------------|-----------------9----------|
|------------------------|----------------------------|
|--4---------------------|---4----------7-------------|
|
|-12-----19-(19)---------|-(19)-------(19)------------|
|------------------------|---------------------21-22--|
|------------------------|----------------------------|
|------------------------|----------------------------|
|------------------------|----------------------------|
|------------------------|----------------------------|


|------------------------|-------------------------|
|------4--5---4--------4-|--------4--5-------------|
|----4-----------4-(4)---|------4-------------8--9-|
|------------------------|-----------------9-------|
|------------------------|-------------------------|
|--5---------------------|---5----------7----------|
|
|------------------------|-------------19----19-21-|
|-24---------------------|----------------17-------|
|--------21-(21)---------|----------21-------------|
|------------------23----|-(23)--------------------|
|------------------------|-------------------------|
|------------------------|-------------------------|


|------------------------------|-----------------------|
|------------------------------|-------4--5--4-------5-|
|------8--9---8-----------8----|----4-----------4------|
|----9-----------9-------------|-----------------------|
|------------------------------|--6----------------6---|
|--9-----------------9---------|-----------------------|
|
|-19-----24-(24)---(24)--------|-----------------------|
|---------------------------19-|-21---22-21-19-17------|
|------------------------21----|------------------16---|
|------------------------------|-----------------------|
|------------------------------|-----------------------|
|------------------------------|-----------------------|


  Gtr I
|-----------------|-------------|---------------|--------------|
|-----------------|-------------|----------5----|--------------|
|----4-4-(4)-4--4-|-(4)---------|----------4--4-|-(4)----4---2-|
|----2-2-(2)-2--2-|-(2)---------|-------------2-|-(2)----4---2-|
|-----------------|-------------|---------------|--------2---0-|
|-0---------------|--------2----|-4----(4)------|--------------|


|------------------|-----------------|-----------|------|
|----------5-(5)-5-|-(5)-5-(5)-------|-----------|------|
|-2--------2-(2)-2-|-(2)-2-(2)-------|-----------|------|
|-2--------2-(2)-2-|-(2)-2-(2)--4----|-----------|------|
|-0--0-0-0---------|------------2----|-4------4--|-6----|
|------------------|-----------------|-----------|------|


|----------------|-------------|-----------------|-------------|
|----------------|-------------|-----------------|-------------|
|----9--(9)------|-------------|----------4--4-6-|-4----4---2--|
|----9--(9)-9--9-|-(9)---------|----------2--2-4-|-2----4---2--|
|----7--(7)-7--7-|-(7)---------|-----------------|------2---0--|
|-0--------------|--------2----|-4----(4)--------|-------------|


|------------------|----------------------|-------------|-2--2--2----|
|----------5-(5)---|----------------------|-5--5--5--5--|-0--0--0----|
|-2----------------|---------------4-(4)--|-2--2--2--2--|------------|
|-2--------------6-|-7-7-6-4-2-----4-(4)--|-2--2--2--2--|-4--4--4----|
|-0--0-0-0---------|-----------4-2--------|-0--0--0--0--|-2--2--2----|
|------------------|----------------------|-------------|------------|


|-----------------------|-----------------|
|---------5-(5)---------|-----------------|
|---------------6-(6)---|-----------------|
|---6-(6)---------------|-----------------|
|-4-------------------4-|-(4)------6------|
|-----------------------|-----------------|
|
| Gtr II
|-----------------------|-----------------|
|---------5-(5)---------|-----------------|
|---------------6-(6)---|-------6------8--|
|---6-(6)---------------|-----6----6-8----|
|-4---------------------|--4--------------|
|-----------------------|-----------------|


|--------------------------9-|--(9)----------|
|----2--(2)-5-(5)------------|---------------|
|------------------6--(6)--6-|--(6)----------|
|-4--------------------------|---------------|
|--------------------------9-|--(9)----------|
|----------------------------|---------4--4--|
|
|----------------------------|---------------|
|----------------------------|---------------|
|-----------9-(9)------------|---------------|
|---11-(11)-------11-(11)-11-|-(11)----------|
|-9--------------------------|---------------|
|----------------------------|---------------|


|-----------2---|---------------------|----------|--------|
|---------4---5-|-(5)-5-4-(4)---------|----------|--------|
|-------6-------|-----8---------------|----------|--------|
|-----6---------|-------------6-------|----------|--------|
|-4-------------|---------------9---7-|-7--------|-(7)----|
|-4-------------|---------------7---5-|-5--------|-(5)----|


|----7--(7)----------|----------7--7--|
|-----------9-7----5-|-(5)--7-5-------|
|-------------9-6----|----------------|
|---------------9----|----------------|
|--------------------|----------------|
|-0------------------|----------------|


|-(7)-9--7------------------|------------------|
|-------10-9-9-(9)-10-10-10-|-(10)----10-------|
|---------------------------|--------------11--|
|---------------------------|------------------|
|---------------------------|------------------|
|---------------------------|------------------|


|-----------------------|------7--9-7-5---4-5---|-----------7-9-12-|
|-9--10--10--9-7-5-(5)--|-(5)-----------5-------|-----5-7-9--------|
|--------13-------------|---------------------6-|-6----------------|
|-----------------------|-----------------------|------------------|
|-----------------------|-----------------------|------------------|
|-----------------------|-----------------------|------------------|


|-(12)-11-9-7-(7)--14--|-16-19---------------|
|----------------------|-------21--(21)---21-|
|----------------------|---------------------|
|----------------------|---------------------|
|----------------------|---------------------|
|----------------------|---------------------|


|---------------------|--------19------------------|
|-(21)-21-22-24-24----|-(24)------21-(21)----------|
|---------------------|-------------------21-------|
|---------------------|------2---------------21----|
|---------------------|-------------------------19-|
|---------------------|----------------------------|


|---------------------|-----------------------|
|-19-17---------------|-----------------------|
|-------16----19---20-|-20--18--(18)----------|
|----------18---------|--------------18-18-19-|
|---------------------|-----------------------|
|---------------------|-----------------------|


|-------------------------|---------------|
|-------------------------|---------------|
|-------------------------|-------------2-|
|-------------------------|-------------0-|
|-21-21-(21)-23-21--21----|-3---3-(3)---0-|
|---------------24--------|-3-------------|


|-----3-2----------|--------3---------|----------------|--------3-------1-|
|---------3-(3)----|----3-----3-------|----------------|----3-----3-------|
|-(2)-----2-(2)----|----5-----------3-|-(3)----(3)-----|----5-------------|
|-(0)--------------|----5-------1-1-1-|-(1)----(1)-----|----5-------1-1---|
|-(0)--------------|-3----------------|--------------3-|-3----------------|
|------------------|-3----3-----------|--------------1-|-3----3-----------|


|----------------|----------3---------|------------------|--------3-------1--|
|-1----(1)-------|------3-----3-------|------------------|----3-----3--------|
|----------------|------5-----------3-|-(3)----(3)-------|----5--------------|
|----------------|------5-------1-1-1-|-(1)----(1)-------|----5-------1-1----|
|----------------|-3--3---------------|------------------|-3-----------------|
|------------3-3-|-3--3---3-----------|--------------3-3-|-3----3------------|


  Q=115
|----------|--------3---------|---------------------|--------3--------|
|-1--------|----3-----3-------|---------------------|----3-----3------|
|----------|----5-----------3-|-(3)-------3-----3-5-|----5---------3--|
|----------|----5-------1-1-1-|-(1)---1-1-1-1-1-1-3-|----5-------1-1--|
|----------|-3----------------|---------------------|-3---------------|
|----------|-3----3-----------|---------------------|-3----3----------|


|-----------------|--------3---------|---------------------|--------3---------|
|-----------------|----3-----3-------|---------------------|----3-----3-------|
|-(3)---5-(5)--5--|----5-----------3-|-(3)-------3-----3-5-|----5-------------|
|-(1)---3-(3)--3--|----5-------1-1-1-|-(1)---1-1-1-1-1-1-3-|----5-------1-1---|
|-----------------|-3----------------|---------------------|-3--------------1-|
|-----------------|-3----3-----------|---------------------|-3----3-----------||-1---------------|-------------|-----------|-----|
|-----------------|-----3-----1-|-----------|-----|
|-3-3-(3)--(3)----|---------3---|-----------|-----|
|---3-(3)--(3)----|---5---------|-5---------|-----|
|-----------------|-3-----1-----|-5---------|-----|
|-----------------|-------------|-3---------|-----|


|---------|---------|-1--------|------------------|
|---------|---------|----------|----3-(3)-4-3--3--|
|---------|---------|----------|------------5-----|
|---------|---------|----------|------------------|
|---------|---------|----------|------------------|
|---------|---------|----------|------------------|


                              Gtr II
|----------------|----------|----------10---------10---------10---------10--|
|-(3)----(3)-----|----------|----10-11----8-10-11----8-10-11----8-10-11-----|
|--------------1-|-2--------|-12--------------------------------------------|
|----------------|----------|-----------------------------------------------|
|----------------|----------|-----------------------------------------------|
|----------------|----------|-----------------------------------------------|


|-------------------------------------------------|
|----10-11-13----------13----------13----------13-|
|-10-------------14-15-------14-15-------14-15----|
|-------------15----------15----------15----------|
|-------------------------------------------------|
|-------------------------------------------------|


|-------------------------------------------------|
|-------10-11-------10-11-------10-11-------10-11-|
|----12----------12----------12----------12-------|
|-12----------12----------12----------12----------|
|-------------------------------------------------|
|-------------------------------------------------|


|------------------------------6-5-8----------|
|-------------------10-11----8-------10-11-10-|
|-------14-15----12-------10------------------|
|-13-15-------13------------------------------|
|---------------------------------------------|
|---------------------------------------------|


|---------10---------10---------10---------10-|
|-8-10-11----8-10-11----8-10-11----8-10-11----|
|---------------------------------------------|
|---------------------------------------------|
|---------------------------------------------|
|---------------------------------------------|


|-------------------------------------------------|
|----10-11-13----------13----------13----------13-|
|-10-------------14-15-------14-15-------14-15----|
|-------------15----------15----------15----------|
|-------------------------------------------------|
|-------------------------------------------------|


|-------------------------------------------------|
|-------10-11-------10-11-------10-11-------10-11-|
|----12----------12----------12----------12-------|
|-12----------12----------12----------12----------|
|-------------------------------------------------|
|-------------------------------------------------|


|------------------------------6-5-8----------|--------------------------------|
|-------------------10-11----8-------10-11-10-|--------------------------------|
|-------14-15----12-------10------------------|--------------------------------|
|-13-15-------13------------------------------|-----------------8--8-10-10-12--|
|---------------------------------------------|--------------------------------|
|---------------------------------------------|--------------------------------|
|
| Gtr III
|---------------------------------------------|--------------------------------|
|---------------------------------------------|---------1-1-3---------1--1--3--|
|---------------------------------------------|-3-3---3---------3--3-----------|
|---------------------------------------------|-----5--------------------------|
|---------------------------------------------|--------------------------------|
|---------------------------------------------|--------------------------------|


  Gtr III
|-------------------------------|------------------------------|
|---------1-1-3---------3-3-1---|---------1-1-3---------1-1-3--|
|-3-3-3-3---------3-3-3-3-5-3-3-|-3-3-3-3---------3-3-3-3------|
|-----5-----------------------7-|-7---5------------------------|
|-------------------------------|------------------------------|
|-------------------------------|------------------------------|


                                  Gtr I
|-------------------------------|---------------------------------|
|---------1-1-3---------3-1-----|---------1-1-3-3---------1-1-3-3-|
|-3-3-3-3---------3-3-3-3---3-2-|-0-3-3-3-3-3-3---0-3-3-3-3-3-3---|
|-----5-------------------------|---5-5-5-------3-3-5-5-5-------3-|
|-------------------------------|---------------------------------|
|-------------------------------|---------------------------------|


|---------------------------------|---------------------------------|
|---------1-1-3-3---------3-3-1---|---------1-1-3-3---------1-1-3-3-|
|-0-3-3-3-3-3-3---0-3-3-3-3-5-3-3-|-2-3-3-3-3-3-3---0-3-3-3-3-3-3---|
|-3-5-5-5-------3-3-5-5-5-------7-|-5-5-5-5-------3-3-5-5-5-------3-|
|---------------------------------|---------------------------------|
|---------------------------------|---------------------------------|


                               
                               
|---------------------------------|--------------|--------3----------|
|---------1-1-3-3---------3-3-1---|------3-----1-|----3-----3--------|
|-0-3-3-3-3-3-3---0-3-3-3-3-5-3-3-|----------3---|----5-----------3--|
|-3-5-5-5-------3-3-5-5-5-------7-|-7--5---------|----5-------1-1-1--|
|---------------------------------|-3------1-----|-3-----------------|
|---------------------------------|--------------|-3----3------------|


|---------------------|--------3-------|-----------------|--------3----------|
|---------------------|----3-----3-----|-----------------|----3-----3--------|
|-(3)-------3-----3-5-|----5---------3-|-(3)---5-(5)--5--|----5-----------3--|
|-(1)---1-1-1-1-1-1-3-|----5-------1-1-|-(1)---3-(3)--3--|----5-------1-1-1--|
|---------------------|-3--------------|-----------------|-3-----------------|
|---------------------|-3----3---------|-----------------|-3----3------------|


                                                 
|---------------------|--------3---------|-1---------------|-------------|
|---------------------|----3-----3-------|-----------------|-----3-----1-|
|-(3)-------3-----3-5-|----5-------------|-3-3-(3)--(3)----|---------3---|
|-(1)---1-1-1-1-1-1-3-|----5-------1-1---|---3-(3)--(3)----|---5---------|
|---------------------|-3--------------1-|-----------------|-3-----1-----|
|---------------------|-3----3-----------|-----------------|-------------|


  

|----6----6--|-5--5----5--|-6--6----6--|------------|
|-3--8----8--|-6--6----6--|-8--8----8--|------------|
|-0--7----7--|-5--5----5--|-7--7----7--|-8----10----|
|----5----5--|-3--3----3--|-5--5----5--|------------|
|------------|------------|------------|-6-----8----|
|------------|------------|------------|------------|


|-----------------|-----------------------------|
|-11--11--(11)----|-10---11-10-(10)-------------|
|-12--12--(12)----|-10--------------10----------|
|-12--12--(12)----|-10-----------------10-------|
|-10--10--(10)----|-----------------------12----|
|-----------------|-13-----------------------13-|


|-----------------|-------------|
|-----------------|-------------|
|-15--15--(15)----|-------10----|
|-17--17--(17)----|-13----10----|
|-17--17--(17)----|-13----------|
|-15--15--(15)----|-11----13----|


|------------------------------|------------------------------|
|------------------------------|------------------------------|
|------------------------------|------------------------------|
|-----------5--5---------------|-----------5--5---------------|
|-------------------------5--5-|-------------------------5--5-|
|-3-3-3-3-3------3--3-3-3------|-3-3-3-3-3------3--3-3-3------|


|-----------------|----------------------|
|-----------------|------4-3-3-----------|
|-----------------|----------5-3---------|
|---------6---8-6-|-5------------5-3-1-0-|
|-3---5-6---------|----------------------|
|-----------------|----------------------|


|------------------------------|-----------------------------|
|------------------------------|-----------------------------|
|------------------------------|-----------------------------|
|-----------5--5---------------|-----------5--5--------------|
|-------------------------5--5-|---------------------------0-|
|-3-3-3-3-3------3--3-3-3------|-3-3-3-3-3------3--3-3-3-3---|


|----------------|------------------|-------------------------------|
|----------------|------1-----------|-------------------------------|
|----------------|--------3-2-----3-|-------------------------------|
|------0---------|-3----------3-3-3-|-----------5--5----------------|
|-1------3-(3)-1-|------------------|-------------------------5--5--|
|----------------|------------------|-3-3-3-3-3------3--3-3-3-------|


|------------------------------|------------------|
|------------------------------|------------------|
|------------------------------|------------------|
|-----------5--5---------------|---------6---8-6--|
|-------------------------5--5-|-3---5-6----------|
|-3-3-3-3-3------3--3-3-3------|------------------|


|----------------------|------------------------------|
|------4-3-3-----------|------------------------------|
|----------5-3---------|------------------------------|
|-5------------5-3-1-0-|-----------5--5---------------|
|----------------------|-------------------------5--5-|
|----------------------|-3-3-3-3-3------3--3-3-3------|


|-----------------------------|----------------|------------------|
|-----------------------------|----------------|------1-----------|
|-----------------------------|----------------|--------3-2-----3-|
|-----------5--5--------------|------0---------|-3----------3-3-3-|
|---------------------------0-|-1------3-(3)-1-|------------------|
|-3-3-3-3-3------3--3-3-3-3---|----------------|------------------|


|-6--6----6--|----------|-------------------------------3--|
|-4--4----4--|-3--------|---------------------3-----3-4-6--|
|-3--3----3--|-2--------|-------------------5---2-3-5------|
|------------|-0--------|-------1-3-5---5-7-8---5----------|
|-6--6----6--|----------|---1-3-5---5-6-8------------------|
|------------|----------|-3-5------------------------------|


|-------5-6-8----6-8-11-13-------------15-|
|-1-4-6-8---6-8-10---15----------15-16-18-|
|---7----------------------14-15-17-------|
|--------------------------17-------------|
|-----------------------------------------|
|-----------------------------------------|


|-15-------------------------------------|
|----20----15----10-8--8---3-------------|
|----24-19-19-14-14---12-7-7-2-2-0-0-----|
|------------------------------------0-0-|
|----------------------------------------|
|----------------------------------------|


|-----------|---------------------|---------------|
|-----------|---------------------|---------------|
|-----------|---------------------|---------------|
|-3----3----|-----------5-5-------|----5-5--------|
|-3----3----|-5----------------5--|-----------5-5-|
|-----------|-3-3-3-3-3-----3-----|-3------3------|


|------------------------------|------------------------------|
|------------------------------|------------------------------|
|------------------------------|------------------------------|
|-----------5--5---------------|-----------5--5---------------|
|-------------------------5--5-|-------------------------5--5-|
|-3-3-3-3-3------3--3-3-3------|-3-3-3-3-3------3--3-3-3------|


|-----------------|----------------------|
|-----------------|------4-3-3-----------|
|-----------------|----------5-3---------|
|---------6---8-6-|-5------------5-3-1-0-|
|-3---5-6---------|----------------------|
|-----------------|----------------------|


|------------------------------|-----------------------------|
|------------------------------|-----------------------------|
|------------------------------|-----------------------------|
|-----------5--5---------------|-----------5--5--------------|
|-------------------------5--5-|---------------------------0-|
|-3-3-3-3-3------3--3-3-3------|-3-3-3-3-3------3--3-3-3-3---|


|----------------|-------------------|------------|------|
|----------------|------1------------|-4--4----4--|-3----|
|----------------|--------3-2------2-|-3--3----3--|-2----|
|------0---------|-3----------3-3--2-|-1--1----1--|-0----|
|-1------3-(3)-1-|------------3-3----|------------|------|
|----------------|-------------------|------------|------|


|-13--------|-11--11-10-8-10-8----|-8-8--8----6--|-18---18-17----|
|-----------|---------------------|-----11-------|---------------|
|-----------|---------------------|--------------|---------------|
|-----------|---------------------|--------------|---------------|
|-----------|---------------------|--------------|---------------|
|-----------|---------------------|--------------|---------------||-----------------------|-------------------------|---------3--(3)--------|
|-----------------------|-------------------------|---------3--(3)-6-(6)--|
|-----------------------|-------------------------|---------0--(0)-5-(5)--|
|-5-----5-------6-----6-|---------5-------6-----6-|----------------3-(3)--|
|-3-3-3-3-3-3-3-3-3-3-3-|-3-3-3-3-3-3-3-3-3-3-3-3-|-3-3-3-3-3--(3)-3-(3)--|
|-----------------------|-------------------------|-----------------------|


               
|------------6--|-4---------------------|------------------------|
|-4---3-(3)--6--|-4-----1-1-------------|------------------------|
|-3---3-(3)--3--|-1---------0-0-3-3-----|------------------------|
|-1---0-(0)-----|---0-0-------------1-1-|-5-----5-------6-----6--|
|---------------|-----------------------|-3-3-3-3-3-3-3-3-3-3-3--|
|---------------|-----------------------|------------------------|


|-------------------------|---------3--(3)--------|------------6--|
|-------------------------|---------3--(3)-6-(6)--|-4---3-(3)--6--|
|-------------------------|---------0--(0)-5-(5)--|-3---3-(3)--3--|
|---------5-------6-----6-|----------------3-(3)--|-1---0-(0)-----|
|-3-3-3-3-3-3-3-3-3-3-3-3-|-3-3-3-3-3--(3)-3-(3)--|---------------|
|-------------------------|-----------------------|---------------||-4---------------------|-----------------------|--------------------------|
|-4-----1-1-------------|-----------------------|--------------------------|
|-1---------0-0-3-3-----|-----------------------|--------------------------|
|---0-0-------------1-1-|-5-----5-------6-----6-|---------5-------6-----6--|
|-----------------------|-3-3-3-3-3-3-3-3-3-3-3-|-3-3-3-3-3-3-3-3-3-3-3-3--|
|-----------------------|-----------------------|--------------------------|


                                  
|---------3--(3)--------|------------6--|-4---------------------|
|---------3--(3)-6-(6)--|-4---3-(3)--6--|-4-----1-1-------------|
|---------0--(0)-5-(5)--|-3---3-(3)--3--|-1---------0-0-3-3-----|
|----------------3-(3)--|-1---0-(0)-----|---0-0-------------1-1-|
|-3-3-3-3-3--(3)-3-(3)--|---------------|-----------------------|
|-----------------------|---------------|-----------------------||-----------------------|-------------------------|---------3--(3)---------|
|-----------------------|-------------------------|---------3--(3)-6-(6)---|
|-----------------------|-------------------------|---------0--(0)-5-(5)---|
|-5-----5-------6-----6-|---------5-------6-----6-|----------------3-(3)---|
|-3-3-3-3-3-3-3-3-3-3-3-|-3-3-3-3-3-3-3-3-3-3-3-3-|-3-3-3-3-3--(3)-3-(3)---|
|-----------------------|-------------------------|------------------------|


             
|------------6--|-4---------------------|-------------|-------------|
|-4---3-(3)--6--|-4-----1-1-------------|-------------|-1-----------|
|-3---3-(3)--3--|-1---------0-0-3-3-----|-------------|---3-1-------|
|-1---0-(0)-----|---0-0-------------1-1-|-------5-3-1-|-------3-5-6-|
|---------------|-----------------------|-3-5-6-------|-------------|
|---------------|-----------------------|-------------|-------------|


                        
|-----------------|---------|-----------------------|
|-4-3--1-0-1--3---|---------|-----------------------|
|-----------------|---------|-----------------------|
|-----------------|---------|-5-----5-------6-----6-|
|-----------------|---------|-3-3-3-3-3-3-3-3-3-3-3-|
|-----------------|---------|-----------------------|


|-------------------------|---------3--(3)--------|------------6--|
|-------------------------|---------3--(3)-6-(6)--|-4---3-(3)--6--|
|-------------------------|---------0--(0)-5-(5)--|-3---3-(3)--3--|
|---------5-------6-----6-|----------------3-(3)--|-1---0-(0)-----|
|-3-3-3-3-3-3-3-3-3-3-3-3-|-3-3-3-3-3--(3)-3-(3)--|---------------|
|-------------------------|-----------------------|---------------||-4---------------------|-----------------------|--------------------------|
|-4-----1-1-------------|-----------------------|--------------------------|
|-1---------0-0-3-3-----|-----------------------|--------------------------|
|---0-0-------------1-1-|-5-----5-------6-----6-|---------5-------6-----6--|
|-----------------------|-3-3-3-3-3-3-3-3-3-3-3-|-3-3-3-3-3-3-3-3-3-3-3-3--|
|-----------------------|-----------------------|--------------------------|


                                 
|---------3--(3)--------|------------6--|-4---------------------|
|---------3--(3)-6-(6)--|-4---3-(3)--6--|-4-----1-1-------------|
|---------0--(0)-5-(5)--|-3---3-(3)--3--|-1---------0-0-3-3-----|
|----------------3-(3)--|-1---0-(0)-----|---0-0-------------1-1-|
|-3-3-3-3-3--(3)-3-(3)--|---------------|-----------------------|
|-----------------------|---------------|-----------------------||---------------------------------|----------------------------------|
|-1-1-----3-3-----4-4-----3-3-----|-----------------4-4--------------|
|-----0-0-------------------------|-5-5-----7-7-------------7-7------|
|-------------5-5-----5-5-----5-5-|-----6-6-----6-6-----6-6-----6-6--|
|---------------------------------|----------------------------------|
|---------------------------------|----------------------------------|


|---------------------------------|-----------------------------------|
|---------------------------------|---------6-6-----------------------|
|-5-5-----7-7-----8-8-----7-7-----|-7-7-------------7-7-----10-10-----|
|-----7-7-----7-7-----7-7-----7-7-|-----8-8-----8-8-----9-9-------9-9-|
|---------------------------------|-----------------------------------|
|---------------------------------|-----------------------------------|


|-------------------------------------|-------------------------------------|
|-8--------8--------8--------8--------|-9--------9--------9--------9--------|
|---8----8---8----8---8----8---8----8-|---8----8---8----8---8----8---8----8-|
|-----10-------10-------10-------10---|-----10-------10-------10-------10---|
|-------------------------------------|-------------------------------------|
|-------------------------------------|-------------------------------------|


|-----------------------------------------|-6-------6-------7-------7-------|
|-10--------10--------10--------10--------|---6---6---6---6---6---6---6---6-|
|----8----8----8----8----8----8----8----8-|-----7-------7-------7-------7---|
|------10--------10--------10--------10---|---------------------------------|
|-----------------------------------------|---------------------------------|
|-----------------------------------------|---------------------------------|


|------------------------------------|
|------------------------------------|
|------------------------------------|
|------------------------------------|
|-6-5-3-1-3-5-6-8-10-8-6-5-6-8-10-11-|
|------------------------------------|
|
| Gtr IV
|------------------------------------|
|------------------------------------|
|------------------------------------|
|-1-0--------------------------------|
|-----3-1-3-5-6-8-10-8-6-5-6-8-10-11-|
|------------------------------------|


|------------------------------------------------|
|------------------------------------------------|
|------------------------------------------------|
|------------------------------------------------|
|-13-11-10-8-10-12-13-15-17-15-13-11-13-15-17-18-|
|------------------------------------------------|
|
|------------------------------------------------|
|------------------------------------------------|
|------------------------------------------------|
|------------------------------------------------|
|-13-11-10-8-10-12-13-15-17-15-13-11-13-15-17-18-|
|------------------------------------------------|


|------------------------------------6-4-3-1-|
|--------------------------------------------|
|-------------------------13-12-10-8---------|
|-------------17-15-13-12--------------------|
|-20-18-17-15--------------------------------|
|--------------------------------------------|
|
|------------------------------------6-4-3-1-|
|--------------------------------------------|
|-------------------------13-12-10-8---------|
|-------------17-15-13-12--------------------|
|-20-18-17-15--------------------------------|
|--------------------------------------------|


|-8-6-4-3-10-8-6-4-11-10--8--6-13-11-10--8-|
|------------------------------------------|
|------------------------------------------|
|------------------------------------------|
|------------------------------------------|
|------------------------------------------|
|
|-8-6-4-3-10-8-6-4-15-13-11-10-16-15-13-11-|
|------------------------------------------|
|------------------------------------------|
|------------------------------------------|
|------------------------------------------|
|------------------------------------------|


  Gtrs I, IV
|-15----------15----------15----------15----------|
|----16----16----16----16----16----16----16----16-|
|-------17----------17----------17----------17----|
|-------------------------------------------------|
|-------------------------------------------------|
|-------------------------------------------------|


|-16----------16----------16----------16----------|
|----16----16----16----16----16----16----16----16-|
|-------17----------17----------17----------17----|
|-------------------------------------------------|
|-------------------------------------------------|
|-------------------------------------------------|


  Gtr I
|-17----------17----------17----------17----------|
|----16----16----16----16----16----16----16----16-|
|-------17----------17----------17----------17----|
|-------------------------------------------------|
|-------------------------------------------------|
|-------------------------------------------------|
|
| Gtr IV
|-17----------17----------17----------17----------|
|----16----16----16----16----16----16----16----16-|
|----17-17----------17----------17----------17----|
|-------19----------------------------------------|
|-------------------------------------------------|
|-------------------------------------------------|


|-18----------18----------19----------19----------|
|----18----18----18----18----18----18----18----18-|
|-------19----------19----------19----------19----|
|-------------------------------------------------|
|-------------------------------------------------|
|-------------------------------------------------|
|
|-18----------18----------19----------19----------|
|----18----18----18----18----18----18----18----18-|
|----17-17----------17----------17----------17----|
|-------20----------------------------------------|
|-------------------------------------------------|
|-------------------------------------------------|


|-20--------|-23------------|------------3--(3)--------|---------------6--|
|-----------|---------------|------------3--(3)-6-(6)--|---4----3-(3)--6--|
|-----------|---------------|------------0--(0)-5-(5)--|---3----3-(3)--3--|
|-----------|---------------|-------------------3-(3)--|---1----0-(0)-----|
|-----------|---------------|---3--3-3-3-3--(3)-3-(3)--|------------------|
|-----------|---------------|--------------------------|------------------|
|
|-----------|-22---20-20----|-(20)---------------------|-(20)-------------|
|-20--------|---------------|--------------------------|------------------|
|-----------|---------------|--------------------------|------------------|
|-----------|---------------|--------------------------|------------------|
|-----------|---------------|--------------------------|------------------|
|-----------|---------------|--------------------------|------------------|


                         

|---4----------------------|----------|
|---4------1-1-------------|----------|
|---1----------0-0-3-3-----|-3--------|
|------0-0-------------1-1-|-3--------|
|--------------------------|-1--------|
|--------------------------|----------|
|
|-(20)---------------------|----------|
|--------------------------|----------|
|--------------------------|----------|
|--------------------------|----------|
|--------------------------|----------|
|--------------------------|----------|


              
               Gtr II
|------------|-----------------------------------|
|------------|---------------------------3-(3)-4-|
|-(3)--------|-----------------------------------|
|-(3)--------|------12-(12)-13---------5---------|
|-(1)--------|---10------------15----3-----------|
|------------|-8------------------15-------------|
|
|------------|-----------------------------------|
|------------|-----------------------------------|
|------------|-----------------------------------|
|------------|-----------------------------------|
|------------|-----------------------------------|
|------------|-----------------------------------|


|------------------------3---|
|------------6-------------3-|
|----------------------3-----|
|-----8-10-8---8-----5-------|
|---8--------------5---------|
|-6--------------3-----------|


|---------------------6--|-4-3---------------6---------|
|-----3-(3)-4-----3-4----|-----4-----------------------|
|-------------5----------|-------3-(3)-----3---7-(7)---|
|---5--------------------|---------------3-------------|
|-3-------------3--------|-------------1-1-------------|
|------------------------|-4---------------------------|


|--------------------------8-|------------------3---|-----------------6-(6)----|
|------------------11-(11)---|---8-8-8------------3-|----3-(3)-4------3-(3)-4--|
|-------------------7--(7)-8-|----------------3-----|----0-(0)-0-5----------5--|
|----12-(12)-13--------------|---8-8-8------5-------|--------------------------|
|----10-(10)-10--------------|------------5---------|-3------------3-----------|
|-8-------------8------------|-6--------3-----------|--------------------------|


|---------4-------------|-----------------------------------|
|-------4---------------|---------------------------3-(3)-4-|
|--------------10-(10)--|-----------------------------------|
|-----6---------8--(8)--|------12-(12)-13---------5---------|
|---6-------------------|---10------------15----3-----------|
|-4----------6----------|-8------------------15-------------|


|------------------------3---|
|------------6-------------3-|
|----------------------3-----|
|-----8-10-8---8-----5-------|
|---8--------------5---------|
|-6--------------3-----------|


                                       
                           
|-----------------------------|---------4-------|----6-6-6-(6)-----------|
|-----3-(3)-4-------------1---|-------4---4-----|----6-6-6-(6)-----------|
|-------------5-----3---------|-----------------|--------------7-8-7-----|
|---5-------------------1---1-|-----6-------6---|----8-8-8-(8)--------8--|
|-3-------------3-3---3-------|---6-----------6-|------------------------|
|-----------------------------|-4---------------|-6----------------------|


                          Gtr I
|-----------------------|---1--(1)----|-(1)----(1)-------|-------------------|
|-----------------------|---3--(3)----|-(3)----(3)-------|-3-3-3-----4-----3-|
|-----------------------|---3--(3)----|-(3)----(3)-------|-0-0-0-----0-----0-|
|-----12--(12)-13-(13)--|---3--(3)----|-(3)----(3)-------|-------------------|
|-10--10--(10)-10-(10)--|---1--(1)----|-(1)----(1)---3-3-|-3-3-3-3-3-3-3-3-3-|
|-----------------------|-------------|------------------|-------------------|


|----------------|----------|----------|--------------------|
|-3-----4-(4)----|-1--------|----------|-3-3-3-----4-----3--|
|-0-----0-(0)----|-3--------|----------|-0-0-0-----0-----0--|
|----------------|-3--------|-5--------|--------------------|
|-3-3-3-3-(3)----|-1--------|-5--------|-3-3-3-3-3-3-3-3-3--|
|----------------|----------|-3--------|--------------------|


|----------------|----------|----------|----------------------|
|-3-----4-(4)----|----------|----------|----------------------|
|-0-----0-(0)----|----------|-3--------|-5-----3-----3-5-(5)--|
|----------------|-6--------|-3--------|-5-----3-----3-5-(5)--|
|-3-3-3-3-(3)----|-6--------|----------|-3-3-3---3-3----------|
|----------------|-4--------|-6--------|----------------------|


|----------------------|----------|----------|----------------------|
|-------------4-3-(3)--|-1--------|----------|----------------------|
|-5-----3-----3-3-(3)--|-3--------|----------|-5-----3-----3-5-(5)--|
|-5-----3--------------|-3--------|-5--------|-5-----3-----3-5-(5)--|
|---3-3---3-3----------|-1--------|-5--------|-3-3-3---3-3----------|
|-8--------------------|----------|-3--------|----------------------|


                                       
|----------------|-------------|----------|-1----|
|----------------|-------------|----------|-3----|
|-3------3-------|-1----(1)----|-3--------|-2----|
|--------7-4-0---|-1----(1)----|-3--------|-0----|
|----------8-4-1-|-------------|-1--------|------|
|--------------5-|-4----(4)----|----------|------|


                                 
|-----------|-1--------|-----------|----------------|
|-3---------|-3--------|------1----|-3--------------|
|-5----2----|-2--------|-3----0----|-2--2-2-2-2-2-2-|
|-5----2----|-0--------|-3---------|-0--0-0-0-0-0-0-|
|-3----0----|----------|-1----3----|----------------|
|-----------|----------|-----------|----------------|


|----------------|----------|----------|----------------|
|-------------3--|-3--------|----------|-3--------------|
|-2-2-2-2-2-2-2--|-5--------|-2--------|-2--2-2-2-2-2-2-|
|-0-0-0-0-0-0-0--|-5--------|-2--------|-0--0-0-0-0-0-0-|
|----------------|-3--------|-0--------|----------------|
|----------------|----------|----------|----------------|


              
|----------------|----------|------|
|-------------3--|----------|-1----|
|-2-2-2-2-2-2-2--|-3--------|-0----|
|-0-0-0-0-0-0-0--|-3--------|------|
|----------------|-1--------|-3----|
|----------------|----------|------|
|---------------------------|-----------4--4--4--4-4-4---|
|-1---------1--1--1--1-1-1--|-----------4--4--4--4-4-4---|
|-3---------3--3--3--3-3-3--|-1--------------------------|
|-3---------3--3--3--3-3-3--|-1---------6--6--6--6-6-6---|
|-1--1-1--1-1--1--1--1-1-1--|-----------6--6--6--6-6-6---|
|---------------------------|-4--4-4--4-4--4--4--4-4-4---|


|---------------------------|-----------1--1--1--1-1-1--|
|-----------3-----3--3-3-3--|-----------1--1--1--1-1-1--|
|-5---------5--5--5--5-5-5--|-3---------3--3--3--3-3-3--|
|-5---------5--5--5--5-5-5--|-3---------3--3--3--3-3-3--|
|-3--3-3--3-3--3--3--3-3-3--|-3--3-3--3-3--3--3--3-3-3--|
|---------------------------|---------------------------|


|-----------1--1--1--1-1-1--|---------------------------|
|-----------1--1--1--1-1-1--|-4---------4--4--4--4-4-4--|
|-2---------2--2--2--2-2-2--|-3---------3--3--3--3-3-3--|
|-3---------3--3--3--3-3-3--|-1---------1--1--1--1-1-1--|
|-3--3-3--3-3--3--3--3-3-3--|-3--3-3--3-3--3--3--3-3-3--|
|---------------------------|---------------------------|


|-3---------3--3--3--3-3-3--|-1---------1--1--1--1-1-1--|
|-3---------3--3--3--3-3-3--|-1---------1--1--1--1-1-1--|
|-5---------5--5--5--5-5-5--|-3---------3--3--3--3-3-3--|
|-5---------5--5--5--5-5-5--|-3---------3--3--3--3-3-3--|
|-3---------3--3--3--3-3-3--|-1---------1--1--1--1-1-1--|
|-3--3-3--3-3--3--3--3-3-3--|-1--1-1--1-1--1--1--1-1-1--|


|---------------------------*|
|-1---------1--1--1--1-1-1--*|
|-3---------3--3--3--3-3-3--*|
|-3---------3--3--3--3-3----*|
|-1--1-1--1-1--1--1--1-1----*|
|---------------------------*|


Текст, аккорды и табулатура для песни "The Killing Hand", исполняет "Dream Theater".
Используемые в песне аккорды можно найти в разделе Как брать аккорды. Аккорды для шестиструнной гитары. Другие песни можно найти на нашем сайте, воспользовавшись алфавитным указателем вверху страницы.


 
Ошибка в тексте? Выделите ошибку и нажмите Ctrl+Enter