Song: John and Theresa Solo Spot  (Incomplete)
Artist: Dream Theater
Written by: John Petrucci,Jordan Rudess (I'm guessing)
Rating: 5 of 5
Album: Live scense from New York
Transcribed by: Pдr Stenberg
[email protected]


Note:

This is probley Johns best guitar solo.... even the best guitar solo
ever. Many parts won't be 100% and that is for sure over the tremelo
picking parts, it hard to hear every note. it
doesn't include all of the fast parts becase I suck at tabbing
(but rock at playing). but I'm only 15 years old so don't you have anything
better to do then complaining on someone who wants to help you.
Please send me some feedback of this.


I will be sending in more and more as I figure it out


Standard Tunning
Legend:

h = hammer-on
p = pull-of
b = bend
r = realse
/ = slide down
 = slide upp
~ = vibration
T = taping
. = palm muted
()= ghost note
= harmoni
# = Pinch Harmoni
x = mute with your left hand
* = tremelo picking|----------------|-12brp10------10-------------------17-|-----------------|
|----------------|----------14------14p12p10------------|-----------------|
|-----7-9-9p7h9b-|---------------------------9h11h13----|-7h8h9p8p7---7---|
|-7h9------------|--------------------------------------|-----------9---9-|
|----------------|--------------------------------------|-----------------|
|----------------|--------------------------------------|-----------------|

                                            Hold the bend
|------10-12-12-10--10h12p10-9h10p9-7h9p7-5-|----10----12--12b-*12-r12p10|
|-/10---------------------------------------|-10----10-------------------|
|-------------------------------------------|----------------------------|
|-------------------------------------------|----------------------------|
|-------------------------------------------|----------------------------|
|-------------------------------------------|----------------------------|


|-9h10--------------------------17b-----------17-17-|------------------|
|-------12br12p10-------------------15/14-14--------|------------------|
|-------------------9~-h11h14-----------------------|7h8h9--p8p7---7---|
|---------------------------------------------------|------------9---9-|
|---------------------------------------------------|------------------|
|---------------------------------------------------|------------------|


Could also be pinch harmoni.
|-----------------------|--------------------------------------------|
|-------------------|----------------------------17~-15~---------|
|-------7h8h9p8p7---7---|-*16--16b-p14h16-------14-----------16~-14~-|
|-----------------9---9-|-----------------14h16----------------------|
|-----------------------|--------------------------------------------|
|-----------------------|--------------------------------------------|


Ever note here is tremelo picked. Use your whammy for vibrations on the last note.
|-/19-17--------------------------------------------------|
|--------19--14-15-17-15-14-15-17-15-14-15-17-15-14-------|
|---------------------------------------------------16-14-|
|---------------------------------------------------------|
|---------------------------------------------------------|
|---------------------------------------------------------|


|------------------------------------17b~-|
|-----------------------------------------|
|-----------------------------------------|
|------------------------14-15-16-17------|
|------------14-15-16-17------------------|
|14-15-16-17------------------------------|Then we do a big skip here to the end of the solo.


|-17b---15-14----12--14----12-------------------------|
|-------------15--------15-------10--8--7--5--3--2--3-|
|-----------------------------------------------------|
|-----------------------------------------------------|
|-----------------------------------------------------|
|-----------------------------------------------------|


Slide in the next song...


I think it would be easyer to tab this if I hade the DVD.
But I just have the CD. This solo is so much better then original
acoustic one... blah


Текст, аккорды и табулатура для песни "John And Theresa", исполняет "Dream Theater".
Используемые в песне аккорды можно найти в разделе Как брать аккорды. Аккорды для шестиструнной гитары. Другие песни можно найти на нашем сайте, воспользовавшись алфавитным указателем вверху страницы.


 
Ошибка в тексте? Выделите ошибку и нажмите Ctrl+Enter