---------------------------------------------------------------------------
			     Home - Dream Theater
---------------------------------------------------------------------------
Tabbed by: Fallacy
Email: [email protected]

Tuning: E-B-G-D-A-D

I saw the tab on the site and it was so wrong that it's not even remotely
funny...So yeah, here's the correct way.

This is just the background guitar...I'll tab the lead later on, so look
for it if you want it...This is also played on an acoustic by the way.  By 
the way, don't get discouraged if you can't learn all of this...Not many 
people are as good as John Petrucci...And just by hearing it or even 
looking at this, you can tell it ain't gonna be easy.

Intro
e|----------------------------------|----------------------------------|
B|----------------------------------|----------------------------------|
G|----------------------------------|----------------------------------|
D|--0-------0-------0-------0-------|--0-------0-------0-------0-------|
A|----------------------------------|----------------------------------|
D|------0-------0-------0-------0---|------0-------0-------0-------0---|

e|----------------------------------|----------------------------------|
B|----------------------------------|----------------------------------|
G|----------------------------------|----------------------------------|
D|--0-------0-------0-------0-------|--0-------0-------0-------0-------|
A|----------------------------------|----------------------------------|
D|------0-------0-------0-------0---|------0-------0-------0-------0---|

e|----------------------------------|----------------------------------|
B|----------------------------------|----------------------------------|
G|----------------------------------|----------------------------------|
D|--0-------0-------0-------0-------|--3-------3-------3-------3-------|
A|----------------------------------|----------------------------------|
D|------0-------0-------0-------0---|------0-------0-------0-------0---|

e|----------------------------------|----------------------------------|
B|----------------------------------|----------------------------------|
G|----------------------------------|----------------------------------|
D|--2-------2-------2-------2-------|--5-------5-------5-------5-------|
A|----------------------------------|----------------------------------|
D|------0-------0-------0-------0---|------0-------0-------0-------0---|

e|----------------------------------|----------------------------------|
B|----------------------------------|----------------------------------|
G|----------------------------------|----------------------------------|
D|--3-------3-------3-------3-------|--7-------7-------7-------7-------|
A|----------------------------------|----------------------------------|
D|------0-------0-------0-------0---|------0-------0-------0-------0---|

e|----------------------------------|----------------------------------|
B|----------------------------------|----------------------------------|
G|----------------------------------|----------------------------------|
D|--5-------5-------5-------5-------|--5-------5-------5-------5-------|
A|----------------------------------|----------------------------------|
D|------0-------0-------0-------0---|------0-------0-------0-------0---|

e|----------------------------------|--0---|---------------------------|
B|----------------------------------|-10---|---------------------------|
G|----------------------------------|--9---|----------------7----------|
D|----------7-------7-------7-------|--0---|----------0----------------|
A|----------------------------------|--0---|------0--------------------|
D|--0---0-------0-------0-------0---|--0---|--0-----------0------------|

e|--------------|--------------------------------|---------------------|
B|--------------|--------------------------------|---------------------|
G|--------------|----------------3-----2-----0---|---------------------|
D|----7h8---7---|----------0---------------------|--4-------0----------|
A|--------------|------0-------------------------|------0--------------|
D|--0-----------|--0-----------0-----------------|--------------0------|

e|---------------|-----------------------------------------|-----------|
B|---------------|-----------------------------------------|-----------|
G|---------------|----------------7------------7h8---7-----|-----------|
D|-------0-------|----------0-----------0------------------|-----------|
A|---------------|------0----------------------------------|------0----|
D|--3h5------1---|--0-----------0------------0-------------|--0--------|

e|-------------------------|--------------------------------|
B|-------------------------|--------------------------------|
G|-------5-----------------|----------------3-----2-----0---|
D|--0--------------0-------|----------0---------------------|
A|-------------0-------0---|------0-------------------------|
D|-----0-------------------|--0-----------0-----------------|

e|-----------------------------------------|---------------------------|
B|-----------------------------------------|---------------------------|
G|-----------------------------------------|----------------7----------|
D|--4-------0----------------------0-------|----------0----------------|
A|-----------------------0-----------------|------0--------------------|
D|------0-------0--0---------3h5-------1---|--0-----------0------------|

e|------------------|--------------------------------------|
B|------------------|--------------------------------------|
G|--------7h8---7---|----------------7-----------7h8---7---|
D|--0---------------|----------0-----------0---------------|
A|------------------|------0-------------------------------|
D|------0-----------|--0-----------0-----------0-----------|

e|--------------------------------------|------------------------------|
B|--------------------------------------|------------------------------|
G|----------------7-----------7h8---7---|----------------7-------------|
D|----------0-----------0---------------|----------0-------------------|
A|------0-------------------------------|------0-----------------------|
D|--0-----------0-----------0-----------|--0-----------0------0--------|

e|---------------|--------------------------------------|--------------|
B|---------------|--------------------------------------|--------------|
G|---------------|----------------7-----------7h8---7---|--------------|
D|--7h8---7------|----------0-----------0---------------|----------0---|
A|-----------0---|------0-------------------------------|------0-------|
D|---------------|--0------------0----------0-----------|--0-----------|

e|--------------------------|--------------------------------------|
B|--------------------------|--------------------------------------|
G|----7-----------7h8---7---|----------------7-----------7h8---7---|
D|----------0---------------|----------0-----------0---------------|
A|--------------------------|------0-------------------------------|
D|--0-----------0-----------|--0-----------0-----------0-----------|

e|------------------------------------------|--------------------------|
B|------------------------------------------|--------------------------|
G|----------------7-------11h12---11--------|----------------7---------|
D|----------0--------------------------12---|----------0-----------0---|
A|------0-----------------------------------|------0-------------------|
D|--0-----------0-------0-------------------|--0-----------0-----------|

e|--------------|--------------------------------------|---------------|
B|--------------|--------------------------------------|---------------|
G|----7h8---7---|----------------7-----------7h8---7---|---------------|
D|--------------|----------0-----------0---------------|----------0----|
A|--------------|------0-------------------------------|------0--------|
D|--0-----------|--0-----------0-----------0-----------|--0------------|

e|--------------------------|--------------------------------------|
B|--------------------------|--------------------------------------|
G|----7-----------7h8---7---|----------------7-----------7h8---7---|
D|----------0---------------|----------0-----------0---------------|
A|--------------------------|------0-------------------------------|
D|--0-----------0-----------|--0-----------0-----------0-----------|

e|--------------------------------------|------------------------------|
B|--------------------------------------|------------------------------|
G|----------------7-----------7h8---7---|----------------7-------------|
D|----------0-----------0---------------|----------0-----------0-------|
A|------0-------------------------------|------0-----------------------|
D|--0-----------0-----------0-----------|--0---------------------------|

e|--------------|--------------------------------------|---------------|
B|--------------|--------------------------------------|---------------|
G|----7h8---7---|----------------7-----------7h8---7---|---------------|
D|--------------|----------0-----------0---------------|----------0----|
A|--------------|------0-------------------------------|------0--------|
D|--0-----------|--0-----------0-----------0-----------|--0------------|

e|------------------------------|
B|------------------------------|
G|----7-------11h12---11--------|
D|-------------------------12---|
A|------------------------------|
D|--0-------0-------------------|

This is the beginning of the electric guitar.

Riff A
                                                    ~~~~~
e|-------------------------------------------------------|
B|-------------------------------------------------------|
G|-------------------------------------------------------|
D|-------------------------------------------------------|
A|-------------------------------------------------------|
D|--0---0---12h13---0---10h12---0---12h13---0---10h12----|

                                                    ~~~~~
e|-------------------------------------------------------|
B|-------------------------------------------------------|
G|-------------------------------------------------------|
D|-------------------------------------------------------|
A|-------------------------------------------------------|
D|--0---0---12h13---0---10h12---0---12h13---0---10h12----|

                                                    ~~~~~
e|-------------------------------------------------------|
B|-------------------------------------------------------|
G|-------------------------------------------------------|
D|-------------------------------------------------------|
A|-------------------------------------------------------|
D|--0---0---12h13---0---10h12---0---12h13---0---10h12----|

e|-------------------------------------------------------|
B|-------------------------------------------------------|
G|-------------------------------------------------------|
D|-------------------------------------------------------|
A|-------------------------------------------------------|
D|--0---0---7h8---0---5h7---0---7h8---0---3---3h5p3------|

                                                    ~~~~~
e|-------------------------------------------------------|
B|-------------------------------------------------------|
G|-------------------------------------------------------|
D|-------------------------------------------------------|
A|-------------------------------------------------------|
D|--0---0---12h13---0---10h12---0---12h13---0---10h12----|

                                                    ~~~~~
e|-------------------------------------------------------|
B|-------------------------------------------------------|
G|-------------------------------------------------------|
D|-------------------------------------------------------|
A|-------------------------------------------------------|
D|--0---0---12h13---0---10h12---0---12h13---0---10h12----|

                                                  ~~~~~
e|-------------------------------------------------------|
B|-------------------------------------------------------|
G|-------------------------------------------------------|
D|-------------------------------------------------------|
A|-------------------------------------------------------|
D|--0---0---10h11---0---8h10---0---10h11---0---8h10------|

							      End Riff A
                                                    ~~~~~
e|-------------------------------------------------------|
B|-------------------------------------------------------|
G|-------------------------------------------------------|
D|-------------------------------------------------------|
A|-------------------------------------------------------|
D|--0---0---10h11---0---16h17---0---16h17---0---17p16----|

Riff B                                             ~~~~~
e|-----------------------------------------------------------------|
B|--10---11---10h11p10--------10----------------------------------|
G|-----------------------12--------11---12---11----7-----11---12---|
D|---7----8---07h08p07---------7-------------4--------------------|
A|-----------------------10---------9---10---------5------9---10---|
D|-----------------------------------------------------------------|
                                                   ~~~~~

                                                   ~~~~~
e|-----------------------------------------------------------------|
B|--10---11---10h11p10--------10----------------------------------|
G|-----------------------12--------11---12---11----7-----11---12---|
D|---7----8---07h08p07---------7-------------4--------------------|
A|-----------------------10---------9---10---------5------9---10---|
D|-----------------------------------------------------------------|
                                                   ~~~~~

                                                       ~~~~~
e|-------------------------------------------------------------------|
B|--10---11---10---11---10--------10--------------------------------|
G|---------------------------12--------11---12---11----7-----7---7---|
D|---7----8----7----8----7---------7-------------4------------------|
A|---------------------------10---------9---10---------5-----5---5---|
D|-------------------------------------------------------------------|
                                                       ~~~~~


                     ~~~~~~~~~~~~~~~~~~~~
e|--------------------------------------------------|
B|--------------------------------------------------|
G|--8h11p8---7h8p7---5--------------------11---12---|
D|--------------------------------------------------|
A|--6h09p6---5h6p5---3---------------------9---10---|
D|--------------------------------------------------|
                     ~~~~~~~~~~~~~~~~~~~~


                                                       ~~~~~
e|-------------------------------------------------------------------|
B|--10---11---10---11---10--------10--------------------------------|
G|---------------------------12--------11---12---11----7-----7---7---|
D|---7----8----7----8----7---------7-------------4------------------|
A|---------------------------10---------9---10---------5-----5---5---|
D|-------------------------------------------------------------------|
                                                       ~~~~~


                                                   ~~~~~
e|--------------------------------------------------------------------|
B|--10---11---10h11p10--------10---------------/-15------------------|
G|-----------------------12--------11---12---11-/--7--------11---12---|
D|---7----8---07h08p07---------7-------------4-----------------------|
A|-----------------------10---------9---10-------------------9---10---|
D|--------------------------------------------------------------------|
                                                   ~~~~~


                                                   ~~~~~
e|-----------------------------------------------------------------|
B|--10---11---10h11p10--------10----------------------------------|
G|-----------------------12--------11---12---11----7-----11---12---|
D|---7----8---07h08p07---------7-------------4--------------------|
A|-----------------------10---------9---10---------5------9---10---|
D|-----------------------------------------------------------------|
                                                   ~~~~~

                     ~~~~~~~~~~~~~~~~~~~
e|----------------------------------------------|
B|----------------------------------------------|
G|--8h11p8---7h8p7---5-------------------(5)---|
D|----------------------------------------------|
A|--6h09p6---5h6p5---3-------------------(3)---|
D|----------------------------------------------|
                     ~~~~~~~~~~~~~~~~~~~

Rhy. Fig. 1
P.M.|===================================================================|
e|-----------------------------------------|------------------------------|
B|-----------------------------------------|------------------------------|
G|-----------------------------------------|------------------------------|
D|--0---0-----0---0-----0---0----------0---|--0---0----------0---0-----0--|
A|--0---0-----0---0-----0---0----------0---|--0---0----------0---0-----0--|
D|--0---0-----0---0-----0---0----------0---|--0---0----------0---0-----0--|

         P.M.|=|    P.M.|====================================|
e|--------------------|-----------------------------------------|
B|--------------------|-----------------------------------------|
G|--------------------|-----------------------------------------|
D|--7/8-----5---6---|--0---0-----0---0-----0---0----------0---|
A|--7/8-----5---6---|--0---0-----0---0-----0---0----------0---|
D|--7/8-----5---6---|--0---0-----0---0-----0---0----------0---|

          End Rhy. Fig. 1
e|----------------------|
B|----------------------|
G|----------------------|
D|----------1p0---------|
A|----------------------|
D|--0h1h3---------3p0---|

*Play Rhy. Fig. 1 two times.*

P.M.|==========================================|
e|-------------------------------------|----------------------------------|
B|-------------------------------------|----------------------------------|
G|-------------------------------------|----------------------------------|
D|--0---0-----0---0-----0---0------0---|--0---0---------------3p0---------|
A|--0---0-----0---0-----0---0------0---|--0---0---------------------------|
D|--0---0-----0---0-----0---0------0---|--0---0-------0h3h5---------6p5---|

P.M.|==========================================|
e|-------------------------------------|----------------------------------|
B|-------------------------------------|----------------------------------|
G|-------------------------------------|----------------------------------|
D|--0---0-----0---0-----0---0------0---|--0---0---------------------------|
A|--0---0-----0---0-----0---0------0---|--0---0---------------3p0---------|
D|--0---0-----0---0-----0---0------0---|--0---0-------0h3h5---------1p0---|

P.M.|==========================================|
e|-------------------------------------|----------------------------------|
B|-------------------------------------|----------------------------------|
G|-------------------------------------|----------------------------------|
D|--0---0-----0---0-----0---0------0---|--0---0---------------3p0---------|
A|--0---0-----0---0-----0---0------0---|--0---0---------------------------|
D|--0---0-----0---0-----0---0------0---|--0---0-------0h3h5---------1p0---|

P.M.|==========================================|
e|-------------------------------------|----------------------------------|
B|-------------------------------------|----------------------------------|
G|-------------------------------------|----------------------------------|
D|--0---0-----0---0-----0---0------0---|--0---0---------------------------|
A|--0---0-----0---0-----0---0------0---|--0---0---------------3p0---------|
D|--0---0-----0---0-----0---0------0---|--0---0-------0h3h5---------1p0---|

Pre-Chorus           ~~~~                    ~~~
e|--------------------------------------|---------------------------------|
B|--------------------------------------|---------------------------------|
G|--------------------------------------|---------------------------------|
D|---------------7h8--7-----------3p2---|---------------------------------|
A|--0---0---7h8-----------0---0---------|--5p4---0---1p0---4h5---0---5h7--|
D|--------------------------------------|---------------------------------|

         ~~~~                     ~~~
e|-----------|--------------------------------------|
B|-----------|--------------------------------------|
G|-----------|--------------------------------------|
D|--5h7--5---|---------------7h8--7-----------3p2---|
A|-----------|--0---0---7h8-----------0---0---------|
D|-----------|--------------------------------------|

      ~~                                 ~~~                      ~~~
e|-------------------------------------------|----------------------------|
B|-------------------------------------------|----------------------------|
G|-------------------------------------------|----------------------------|
D|----------------------------------5h7--5---|----------------7h8--7------|
A|--5p4---0---1p0---4h5---0---5h7------------|--0---0---7h8------------0--|
D|-------------------------------------------|----------------------------|

                   ~~                                 ~~~
e|------------|-------------------------------------------|
B|------------|-------------------------------------------|
G|------------|-------------------------------------------|
D|------3p2---|----------------------------------5h7--5---|
A|--0---------|--5p4---0---1p0---4h5---0---5h7------------|
D|------------|-------------------------------------------|

                      ~~~                    ~~
e|--------------------------------------|---------------------------------|
B|--------------------------------------|---------------------------------|
G|--------------------------------------|---------------------------------|
D|---------------7h8--7-----------3p2---|---------------------------------|
A|--0---0---7h8-----------0---0---------|--5p4---0---1p0---4h5---0---5h7--|
D|--------------------------------------|---------------------------------|

         ~~~
e|-----------|
B|-----------|
G|-----------|
D|--5h7--5---|
A|-----------|
D|-----------|

Riff C
P.M.|====================================================|
e|----------------------------------------------------------------|
B|----------------------------------------------------------------|
G|----------------------------------------------------------------|
D|----------------------------------------------------------------|
A|----------------------------------------------------------------|
D|--5---7---8---5---8---5---7---8---5---8---5---7---8---5---3p0---|

P.M.|========================================|
e|----------------------------------------------------------------|
B|----------------------------------------------------------------|
G|----------------------------------------------------------------|
D|----------------------------------------------------------7h8---|
A|----------------------------------------------5---7---8---------|
D|--5---7---8---5---8---5---7---8---5---7---8---------------------|

                      ~~~~                    ~~~~
e|---------------------------------------|--------------------------------|
B|---------------------------------------|--------------------------------|
G|---------------------------------------|--------------------------------|
D|----------------7h8--7-----------3p2---|--------------------------------|
A|--0---0---7h8------------0---0---------|--5p4---0---1p0---4h5---0---5h7-|
D|---------------------------------------|--------------------------------|

          P.M.|====================================================|
e|---------|--------------------------------------------------------------|
B|---------|--------------------------------------------------------------|
G|---------|--------------------------------------------------------------|
D|--5h7--5-|--------------------------------------------------------------|
A|---------|--------------------------------------------------------------|
D|---------|--5---7---8---5---8---5---7---8---5---8---5---7---8---5---3p0-|

P.M.|========================================|
e|---------------------------------------------------------------|
B|---------------------------------------------------------------|
G|---------------------------------------------------------------|
D|-----------------------------------------------------5h8p6p5---|
A|----------------------------------------------5h6h8------------|
D|--5---7---8---5---8---5---7---8---5---7---9--------------------|

e|---------8-10-11-10-8-13-11-10-15-13-11----------------11-13-15-13-11---|
B|--8-9-11--------------------------------15-13-11-13-15------------------|
G|------------------------------------------------------------------------|
D|------------------------------------------------------------------------|
A|------------------------------------------------------------------------|
D|------------------------------------------------------------------------|

                                             End Riff C
                                  ~~~~~~~~~~~~~~~~~~~~
e|--10-20-18-16---------------|-----------------------|
B|--------------20-18-16------|-----------------------|
G|-----------------------19---|--17-------------------|
D|----------------------------|-----------------------|
A|----------------------------|-----------------------|
D|----------------------------|-----------------------|

Chorus
      P.M.|===|    P.M.|===|       P.M.|===|    P.M.|===|
e|----------------------------|----------------------------|
B|----------------------------|----------------------------|
G|--5-----------5-------------|----------------------------|
D|--5-----------5-------------|--6-----------6-------------|
A|--3-----3--3--3------3--3---|--3-----3--3--3------3--3---|
D|----------------------------|----------------------------|

      P.M.|===|
e|----------------------------|------------|
B|--6-----------6-------------|------------|
G|--5-----------5-------X-----|--8-----3---|
D|--3-----------3-------X-----|--8-----3---|
A|--------3--3----------------|--6-----1---|
D|----------------------------|------------|

      P.M.|===|    P.M.|===|       P.M.|===|    P.M.|===|
e|----------------------------|----------------------------|
B|----------------------------|----------------------------|
G|--5-----------5-------------|----------------------------|
D|--5-----------5-------------|--6-----------6-------------|
A|--3-----3--3--3------3--3---|--3-----3--3--3------3--3---|
D|----------------------------|----------------------------|

      P.M.|===|
e|------------------|-----------|----------------------------------|
B|--6-----------6---|-----------|----------------------------------|
G|--5-----------5---|--8--------|--8---7---8-------8---7---8-------|
D|--3-----------3---|--8----8---|--5-----------5---------------5---|
A|--------3--3------|--6----5---|----------------------------------|
D|------------------|-----------|----------------------------------|

e|----------------------------------|----------------------------------|
B|----------------------------------|----------------------------------|
G|--8---7---8-------8---7---8-------|--8---7---8-------8---7---8-------|
D|--6-----------6---6-----------6---|--7-----------7---7-----------7---|
A|----------------------------------|----------------------------------|
D|----------------------------------|----------------------------------|

      P.M.|====|    P.M.|====|
e|----------------------------------------|-------------------------------|
B|----------------------------------------|-------------------------------|
G|--7-------------8-------------10---12---|--13--12--13------13--12--13---|
D|--6-----6---6---6-----6---6-------------|--10----------10--10---------10|
A|----------------------------------------|-------------------------------|
D|----------------------------------------|-------------------------------|

                                         P.M.|====|
e|-----------------------------------|------------------------------------|
B|-----------------------------------|---------------1h2p1----------------|
G|--13--12--13------13--12--13-------|--3------------------3-1------------|
D|--11----------11--11----------11---|--3----------------------3----------|
A|-----------------------------------|--1----1---1---------------4-3-1----|
D|-----------------------------------|------------------------------------|

    ~~~~~~            P.M.|============|    P.M.|========|
e|---------------------|----------------------------------------|
B|---------------------|----------------------------------------|
G|----------5----------|----------------------------------------|
D|----------5----------|------------------------------------8---|
A|--------0-3----------|--5---5---5---5---5p0---5---5---5---5---|
D|--5-----------/17---|----------------------------------------|

P.M.|========|        P.M.|========|   P.M.|=|
e|--------------------------------------------------|
B|----------------------------------------------6---|
G|------------------------------------5---------5---|
D|------------------------------------5---------3---|
A|--5---5---5---5---5p0---3---3---3---3-----3-------|
D|--------------------------------------------------|

P.M.|============|    P.M.|========|
e|----------------------------------------|
B|----------------------------------------|
G|------------------------------------2---|
D|--0---0---0---0---------0---0---0---0---|
A|------------------5p0-------------------|
D|----------------------------------------|

P.M.|============|    P.M.|========|   P.M.|=|
e|--------------------------------------------------|
B|----------------------------------------------6---|
G|------------------------------------5---------5---|
D|--0---0---0---0---------------------5---------3---|
A|------------------5p0---3---3---3---3-----3-------|
D|--------------------------------------------------|

Interlude
*Play Riff B*
Bridge
*Play Riff A*
*Play Riff A*
*Play Pre-Chorus*
*Play Riff C*
*Play Chorus*

Instrumental Section
Electric Sitar                       ~~~~   1  1                1/2 1/2
e|----------------|-----------|----------------------|--------------------|
B|--3----1----4---|--3--------|--3----4------8^r8^---|--3---1-----3^r(3)^-|
G|----------------|-------2---|----------------------|--------------------|
D|----------------|-----------|----------------------|--------------------|
A|----------------|-----------|----------------------|--------------------|
D|----------------|-----------|----------------------|--------------------|

                                               ~~~~~
e|----------------------|-------------------|-------------|
B|--3-------------------|-------------------|---------3---|
G|--------2-----2---3---|/5-----3-----2p0---|--2----------|
D|----------------------|-------------------|-------------|
A|----------------------|-------------------|-------------|
D|----------------------|-------------------|-------------|

e|----------------------------3---|--2--------------------------|
B|--3---1-----4-----1----3--------|--------3----1----4----------|
G|--------------------------------|----------------------3p2----|
D|--------------------------------|-----------------------------|
A|--------------------------------|-----------------------------|
D|--------------------------------|-----------------------------|

e|---------------------------------|--10----------------------------------|
B|--3----1----/8----7---/11---10---|--------13----11--10----13-11-10------|
G|---------------------------------|---------------------------------12---|
D|---------------------------------|--------------------------------------|
A|---------------------------------|--------------------------------------|
D|---------------------------------|--------------------------------------|

                                           1/2
e|-----------------|-----------------------------------|-----------|
B|-----------------|-------------/10-------------------|-----------|
G|--11-12--11------|--5----7----8-----------2^r(2)-0---|-----------|
D|------------12---|-----------------------------------|--4----0---|
A|-----------------|-----------------------------------|-----------|
D|-----------------|-----------------------------------|-----------|

e|----------------------------------------------------|
B|--10---11--12-------------10---11--10---------------|
G|-----------------12-11-12----------------12-11-12---|
D|----------------------------------------------------|
A|----------------------------------------------------|
D|----------------------------------------------------|

e|------------------------------------|
B|--7----8---7------------------------|
G|-----------------8---7---8/7----5---|
D|------------------------------------|
A|------------------------------------|
D|------------------------------------|

e|--10-------------------------10-------------------------------|
B|--------10--11--13---11--10-------10--13----10--11h13p11p10---|
G|--------------------------------------------------------------|
D|--------------------------------------------------------------|
A|--------------------------------------------------------------|
D|--------------------------------------------------------------|

                                                 ~~~~~~~~~~~~~~~
e|--------------------------------------------------------------|
B|--13----10---11---11p10------10-------------------------------|
G|-------------------------12------11h12--11--------------------|
D|----------------------------------------------12--------------|
A|--------------------------------------------------------------|
D|--------------------------------------------------------------|

                           ~~~
e|--------------------------------------------10--------------------------|
B|------------------------------10--13p11p10------13p11p10-11p10----------|
G|--/10---13--12-----13---12-------------------------------------12p11h12-|
D|------------------------------------------------------------------------|
A|------------------------------------------------------------------------|
D|------------------------------------------------------------------------|

              ~~~~                       ~~~~~~
e|-------------------------------------------------|
B|--10---------------------------------------------|
G|-------12---11-----12---11-----------------------|
D|-----------------------------13--12---10---------|
A|-------------------------------------------------|
D|-------------------------------------------------|

                                  ~~~             ~~~
e|-----------------10-----------------------------------------------------|
B|--10---11---13-------13---11---10---------10--------10--11--10--11------|
G|-------------------------------------12--------11-----------------------|
D|------------------------------------------------------------------------|
A|------------------------------------------------------------------------|
D|------------------------------------------------------------------------|

e|-------10------10-11------10--------------------------------------------|
B|--13------13-----------13-----11-13-11-10-11-10----10-------------------|
G|------------------------------------------------12----12-11-12-11-------|
D|------------------------------------------------------------------13----|
A|------------------------------------------------------------------------|
D|------------------------------------------------------------------------|

e|--------------------------11-10-----------------------------------------|
B|--------------------11-10--------13-11-10-11-10-------------------------|
G|--------11----12-11-----------------------------12-11-12-11-------------|
D|--12-10----13-----------------------------------------------13-12-10----|
A|------------------------------------------------------------------------|
D|------------------------------------------------------------------------|

                                    ~~~~~
e|----------------------------------------|
B|----------------------------------------|
G|----------------------------------------|
D|--7----8---7-----5---4---5---4----------|
A|----------------------------------5-----|
D|----------------------------------------|

                                      ~~~~~
e|----------------------------------------------------|
B|--/10---11--10----------------10--------------------|
G|------------------12--11--12------------------------|
D|-----------------------------------12------12--12---|
A|----------------------------------------------------|
D|----------------------------------------------------|

e|----------------------------------------10---------------------------|
B|--10---------------------------10-11-13----13-11-10-13-11-10---------|
G|-------12-11------12-----------------------------------------12-11---|
D|--------------12------13--12-----------------------------------------|
A|---------------------------------------------------------------------|
D|---------------------------------------------------------------------|

e|------------------------------------------------------|
B|--13----11--10---13------13--11--10---11----10--------|
G|-------------------------------------------------12---|
D|------------------------------------------------------|
A|------------------------------------------------------|
D|------------------------------------------------------|

                             ~~~~~~~~~~~
e|-------------------------------------------|
B|-------------------------------------------|
G|--/11----12---11---------------------------|
D|----------------------13--12---------------|
A|-------------------------------------------|
D|-------------------------------------------|

Synth. Solo
Riff E
e|--------------------------------------------------------|
B|--------------------------------------------------------|
G|--------------------------------------------------------|
D|------5-------3--5-------6-------3--5-------------------|
A|-------------------------------------------6--5--3--2---|
D|--5-------5----------5-------5---------5----------------|

e|--------------------------------------------------------|
B|--------------------------------------------------------|
G|----------------------5--4------------------------------|
D|------5-------3----------------6--5---------------------|
A|-----------------------------------------3--5--2--------|
D|--5-------5-------5-------------------5------------6----|

e|--------------------------------------------------------|
B|--------------------------------------------------------|
G|--------------------------------------------------------|
D|------5-------3--5-------6-------3--5-------------------|
A|-------------------------------------------6--5--3--2---|
D|--5-------5----------5-------5---------5----------------|

                                                 End Riff E
e|--------------------------------------------------------|
B|--------------------------------------------------------|
G|----------------------5--4------------------------------|
D|------5-------3----------------6--5---------------------|
A|-----------------------------------------3--5--2--------|
D|--5-------5-------5-------------------5------------6----|

*Play Riff E two times*
*Play Riff A*

Guitar Solo
Tremelo Bar (Dip w/grad. release)
                  ~~~ ~~~~~~~
e|------/------|----------------------|-------------------------------|
B|-----/-------|----------------------|-------------------------------|
G|---/--0-----|--(0)/7------7/8/10---|--/12----(12)/13----12h13p12---|
D|---V---------|----------------------|-------------------------------|
A|-------------|----------------------|-------------------------------|
D|-------------|----------------------|-------------------------------|
                 |_____________________________________|
                                  LEGATO

            ~~~~~~~                           ~~~~~         ~~~~
e|-----------------------------------|------/11------10---8p7------|
B|-----------------------------------|--/8h9-----------------------|
G|--11h12---124----4----------------|-----------------------------|
D|-----------------------6---6h6p5---|-----------------------------|
A|-----------------------------------|-----------------------------|
D|-----------------------------------|-----------------------------|

              ~~~~~~
e|---------/10---------8h10p87---|------------/13---------11h13---|
B|-8h9-----------------------------|--8---(8)h9--------------------|
G|---------------------------------|--------------------------------|
D|---------------------------------|--------------------------------|
A|---------------------------------|--------------------------------|
D|---------------------------------|--------------------------------|


e|--/15--------13-15-16-15-13-16-19-16-15-19-20-19-16-20-22-20-19---|
B|------------------------------------------------------------------|
G|------------------------------------------------------------------|
D|------------------------------------------------------------------|
A|------------------------------------------------------------------|
D|------------------------------------------------------------------|

     ~~~~~~
e|--24--(24)-12-12h13p12-12-10-10h12p10--9--9h10p96--6-----------|
B|------------------------------------------------------------------|
G|------------------------------------------------------------------|
D|------------------------------------------------------------------|
A|------------------------------------------------------------------|
D|------------------------------------------------------------------|

e|--6p5-5-5h6p5h9--5------------------------------------------------|
B|--------------------8h10p8--6--6h8p6p5-5h6h8-----8p6p5---5--------|
G|-------------------------------------------------------7---6------|
D|------------------------------------------------------------------|
A|------------------------------------------------------------------|
D|------------------------------------------------------------------|

    A.H.|==========|
         1   1
e|---------------------------------------------|
B|---------------------------------------------|
G|-------7^r(7)^r(7)p6-------------------------|
D|--7p5----------------7-7p5-------------------|
A|---------------------------7-4-5-7-4---------|
D|-------------------------------------7-5-7---|


e|------------------------------------------------------------------|
B|------------------------------------------------------------------|
G|--------------------------------6h7---9--------7p6----------------|
D|-----------------5h7h8p7p5h7h8----------------------8p7p5--7h8p7--|
A|--4h5h7p5p4h5h7---------------------------------------------------|
D|------------------------------------------------------------------|

e|------------------------------------------------------------------|
B|-----------------------------------------------------10h11--------|
G|---/10-----10-----10-----9h10h12--------10p9h10h12----------------|
D|--7---------------------------------------------------------------|
A|------------------------------------------------------------------|
D|------------------------------------------------------------------|


e|--9h10h12p10p9------9---------------------------------------------------|
B|----------------11-----11p10p9------------------------------------------|
G|------------------------------------10h12p10p9--------------------------|
D|------------------------------------------------12p11--8----------------|
A|---------------------------------------------------------12p10--8-------|
D|------------------------------------------------------------------14-11-|

e|------------------------------------------------------------------------|
B|------------------------------------------------------------------------|
G|------------------------------------------------------------------------|
D|------------------------------------------------------------11----------|
A|------------10-12-13-12-10----------------14-12-13-10-12-13-------------|
D|--11-12-14-----------------14-12-11-12-14-------------------------------|

e|------------------------------------------------------------------------|
B|------------------------------------------------------------------------|
G|----------------------------------------------12-14-15-14-12------------|
D|-12-14-12-11----------------11-12-14-11-12-14----------------14-12-11---|
A|-------------13-12-10-12-13---------------------------------------------|
D|------------------------------------------------------------------------|

                                     ~~~~    ~~~~    ~~~~~
e|--------------------------15-17-|--18---17-17---15-15----11-12-11-10----|
B|-----------------14-15-17-------|------------------------------------13-|
G|--------12-14-15----------------|---------------------------------------|
D|--12-14-------------------------|---------------------------------------|
A|--------------------------------|---------------------------------------|
D|--------------------------------|---------------------------------------|

e|------------------------------------------------------------------------|
B|--11-10-------11---10----10---------------------------------------------|
G|--------12-10---------12----12---10----10-------------------------------|
D|------------------------------------12----12-10-8------10-11-10-8-------|
A|--------------------------------------------------10-8------------10-8--|
D|------------------------------------------------------------------------|

e|----------|
B|----------|
G|----------|
D|----------|
A|----------|
D|--12-10---|

e|--------------------------------------------------------13-13-12-12----|
B|--------------------------------------------15-15-14-14----------------|
G|--------------------------------14-14-12-12----------------------------|
D|--------------------12-12-11-11----------------------------------------|
A|--------12-12-10-10----------------------------------------------------|
D|--12-------------------------------------------------------------------|

e|----------------|
B|--15-14---------|
G|--------15-14---|
D|----------------|
A|----------------|
D|----------------|

      ~~~~~                                                          ~~~~
e|--/17-------0----17-18-17-15-17-18-17-15-------------------------------|
B|------------------------------------------14-15-14-12------------------|
G|-------------------------------------------------------15-14-12-11-----|
D|-------------------------------------------------------------------12--|
A|-----------------------------------------------------------------------|
D|-----------------------------------------------------------------------|

e|-----------------------------------------------------------20-18-17----|
B|-----------------------------------------18-16-15----------------------|
G|-----12-10-------------17-15-14-------14----------17-15-17-------------|
D|-----------12-------------------17-15----------------------------------|
A|--10----------13-10-13-------------------------------------------------|
D|-----------------------------------------------------------------------|

e|----------|
B|--20-18---|
G|----------|
D|----------|
A|----------|
D|----------|

     ~~~~                                      1
e|-----------18-20-18-15-------------------------------------------------|
B|--20----20-------------18-15-18-20-18-15-------------------------------|
G|-----------------------------------------18-17^r(17)-15----------------|
D|--------------------------------------------------------17-15----------|
A|--------------------------------------------------------------17-15----|
D|-----------------------------------------------------------------------|

     1   ~~~~
e|-----------|
B|-----------|
G|--17^-15---|
D|-----------|
A|-----------|
D|-----------|

e|--10-11-10-8--------------------8-11-10-8-13-15-13-11------------------|
B|-------------11-8-9-8---------9-----------------------15-11-13-11------|
G|----------------------10-8-10------------------------------------13-12-|
D|-----------------------------------------------------------------------|
A|-----------------------------------------------------------------------|
D|-----------------------------------------------------------------------|

e|--13-15-13-11---------|
B|--------------15-11---|
G|----------------------|
D|----------------------|
A|----------------------|
D|----------------------|

e|--16-18-16-15-------------------------15-18-16-15-18-20-18-16-18-20-18-|
B|--------------18-15-16-15----------16----------------------------------|
G|--------------------------17-15-17-------------------------------------|
D|-----------------------------------------------------------------------|
A|-----------------------------------------------------------------------|
D|-----------------------------------------------------------------------|

e|--16---------------|
B|-----20-18-16------|
G|--------------19---|
D|-------------------|
A|-------------------|
D|-------------------|

*Play Chorus*
*Play Riff A*
*Rest for the keyboard solo*

Outro
Synth                                    ~~~~~
e|-------------------------------------------------|
B|--------13-15-13h15p13----------------13---------|
G|--14-15----------------15-14-15-14h15-------15---|
D|-------------------------------------------------|
A|-------------------------------------------------|
D|-------------------------------------------------|

						           ~~~~~
e|---------------------------------------------------|
B|--------13-15-13h15p13-----------------------------|
G|--14-15----------------15-14-15-14h15p14-----------|
D|-----------------------------------------17-16-----|
A|---------------------------------------------------|
D|---------------------------------------------------|

						     ~~~~~
e|-------------------------------------------------|
B|--------13-15-13h15p13----------------13---------|
G|--14-15----------------15-14-15-14h15-------15---|
D|-------------------------------------------------|
A|-------------------------------------------------|
D|-------------------------------------------------|

e|-----------------------------------------------------------|
B|--------13-15-13h15p13-------------------------------------|
G|--14-15----------------15-14-15-14h15p14-------------------|
D|-----------------------------------------17-16---13-12-10--|
A|-----------------------------------------------------------|
D|-----------------------------------------------------------|

						     ~~~~~
e|-------------------------------------------------|
B|--------13-15-13h15p13----------------13---------|
G|--14-15----------------15-14-15-14h15-------15---|
D|-------------------------------------------------|
A|-------------------------------------------------|
D|-------------------------------------------------|

						           ~~~~~
e|---------------------------------------------------|
B|--------13-15-13h15p13-----------------------------|
G|--14-15----------------15-14-15-14h15p14-----------|
D|-----------------------------------------17-16-----|
A|---------------------------------------------------|
D|---------------------------------------------------|

						     ~~~~~
e|-------------------------------------------------|
B|--------13-15-13h15p13----------------13---------|
G|--14-15----------------15-14-15-14h15-------15---|
D|-------------------------------------------------|
A|-------------------------------------------------|
D|-------------------------------------------------|

e|-----------------------------------------------------------|
B|--------13-15-13h15p13-------------------------------------|
G|--14-15----------------15-14-15-14h15p14-------------------|
D|-----------------------------------------17-16---13-12-10--|
A|-----------------------------------------------------------|
D|-----------------------------------------------------------|

						     ~~~~~
e|-------------------------------------------------|
B|--------13-15-13h15p13----------------13---------|
G|--14-15----------------15-14-15-14h15-------15---|
D|-------------------------------------------------|
A|-------------------------------------------------|
D|-------------------------------------------------|

						           ~~~~~
e|---------------------------------------------------|
B|--------13-15-13h15p13-----------------------------|
G|--14-15----------------15-14-15-14h15p14-----------|
D|-----------------------------------------17-16-----|
A|---------------------------------------------------|
D|---------------------------------------------------|

						     ~~~~~
e|-------------------------------------------------|
B|--------13-15-13h15p13----------------13---------|
G|--14-15----------------15-14-15-14h15-------15---|
D|-------------------------------------------------|
A|-------------------------------------------------|
D|-------------------------------------------------|

e|-----------------------------------------------------------|
B|--------13-15-13h15p13-------------------------------------|
G|--14-15----------------15-14-15-14h15p14-------------------|
D|-----------------------------------------17-16---13-12-10--|
A|-----------------------------------------------------------|
D|-----------------------------------------------------------|

e|---------------------------|-------------------------------------------|
B|---------------------------|-------------------------------------------|
G|----------------------12---|--11---------------------------------------|
D|--10----12---13------------|--------13---12-----13---10---12---13---12-|
A|---------------------------|-------------------------------------------|
D|---------------------------|-------------------------------------------|

e|---------------------------|-------------------------------------------|
B|---------------------------|--10---------------------------------------|
G|----------------------12---|--------12---11-----12---11----------------|
D|--10----12---13------------|------------------------------13---12---10-|
A|---------------------------|-------------------------------------------|
D|---------------------------|-------------------------------------------|

                                                 ~~~~~~
e|-----------------------------------------------------------------------|
B|-----------------------------------------------------------------------|
G|---------11--12--11h12p11---------------------11-----------------------|
D|--12h13--------------------13--12--13--12h13-------------13------------|
A|-----------------------------------------------------------------------|
D|-----------------------------------------------------------------------|

e|-----------------------------------------------------------------------|
B|-----------------------------------------------------------------------|
G|---------11--12--11h12p11----------------------------------------------|
D|--12h13--------------------13--12--13--12h13p12------------------------|
A|-------------------------------------------------13--12----------------|
D|-----------------------------------------------------------------------|

Synth.
e|-----------5---6--05h06p05------------------------5--------|
B|--07h08----------------------8---7---8---7h8-----------8---|
G|----------11--12--11h12h11-----------------------11--------|
D|--12h13---------------------13--12--13--12h13---------13---|
A|-----------------------------------------------------------|
D|-----------------------------------------------------------|
  |________________________________________________________|
   When playing this, either play the top or bottom, it's
   mixed together in the track, he doesn't play it like that...
   It's impossible.  That's what synth means...

Synth
e|-----------5---6--05h07p05--------------------------------------------|
B|--07h08----------------------8---7---8---07h08p07---------------------|
G|----------11--12--11h12h11--------------------------8---7-------------|
D|--12h13---------------------13--12--13---12h13p12-----------13--12----|
A|---------------------------------------------------13--12-------------|
D|----------------------------------------------------------------------|

e|---------------------------|-------------------------------------------|
B|---------------------------|-------------------------------------------|
G|----------------------12---|--11---------------------------------------|
D|--10----12---13------------|--------13---12-----13---10---12---13---12-|
A|---------------------------|-------------------------------------------|
D|---------------------------|-------------------------------------------|

e|-----------------------------------------|-----------------------------|
B|-----------------------------------------|--------------------10-------|
G|-----------------11---12---11------------|-------11---12---------------|
D|--10---12---13------------------13---12--|--13-------------------------|
A|-----------------------------------------|-----------------------------|
D|-----------------------------------------|-----------------------------|

e|----------------------|------------------------------------------------|
B|--11---10-------------|------10--11--13-----11--10------10--11--13-----|
G|-----------12----11---|--12-------------------------12-----------------|
D|----------------------|------------------------------------------------|
A|----------------------|------------------------------------------------|
D|----------------------|------------------------------------------------|

e|------------14---15---14-------------|
B|--15---16------------------16---15---|
G|-------------------------------------|
D|-------------------------------------|
A|-------------------------------------|
D|-------------------------------------|

e|-----------------------------------------------------------------------|
B|---------13--15----13-------------13--15--16--15--13----------15--13---|
G|--14--15----------------15--14--15----------------------15--14-------15|
D|-----------------------------------------------------------------------|
A|-----------------------------------------------------------------------|
D|-----------------------------------------------------------------------|

e|-----------------------------------------------------------------------|
B|--------13-15---13----------13-15-16-15-13-------15-13-----------------|
G|--14-15------------15-14-15----------------15-14-------15--------------|
D|-----------------------------------------------------------------------|
A|-----------------------------------------------------------------------|
D|-----------------------------------------------------------------------|

e|-----------------------------------------------------------------------|
B|--------13-15---13----------13-15-16-15-13-------15-13-----------------|
G|--14-15------------15-14-15----------------15-14-------15--------------|
D|-----------------------------------------------------------------------|
A|-----------------------------------------------------------------------|
D|-----------------------------------------------------------------------|

e|-----------------------------------------------------------------------|
B|--------13-15---13----------13-15-16-15-13-------15-13----------13-15--|
G|--14-15------------15-14-15----------------15-14-------15-14-15--------|
D|-----------------------------------------------------------------------|
A|-----------------------------------------------------------------------|
D|-----------------------------------------------------------------------|

e|-------|--------14-15---14----------14-15-17-15-14-------15-14---------|
B|--16---|--15-16------------13-15-16----------------16-15-------16------|
G|-------|---------------------------------------------------------------|
D|-------|---------------------------------------------------------------|
A|-------|---------------------------------------------------------------|
D|-------|---------------------------------------------------------------|

e|--------14-15----14-15-17---|--14--15--17--15--17--18---|
B|--15-16-------16------------|---------------------------|
G|----------------------------|---------------------------|
D|----------------------------|---------------------------|
A|----------------------------|---------------------------|
D|----------------------------|---------------------------|

    ~~~~~~~~~~~~~~~~~~~~~~~~~~~~~~~~~~~~~~~~~~~~~~~~~~~~~~
e|--20------------------------|---------------------------|--------------|
B|----------------------------|---------------------------|--------------|
G|----------------------------|---------------------------|--------------|
D|----------------------------|---------------------------|--0-----------|
A|----------------------------|---------------------------|--0-----------|
D|----------------------------|---------------------------|--0-----------|


Текст, аккорды и табулатура для песни "Home", исполняет "Dream Theater".
Используемые в песне аккорды можно найти в разделе Как брать аккорды. Аккорды для шестиструнной гитары. Другие песни можно найти на нашем сайте, воспользовавшись алфавитным указателем вверху страницы.


 
Ошибка в тексте? Выделите ошибку и нажмите Ctrl+Enter