Аккорды:

     Dm9  Dm11/C  Gm  Gm9  A4,b9  A   Dm  Am9,11  Dm/A   Dm/Bb
E-|--0------------3----3-----0----0---5-----0-------------------||
B-|--6------6-----3----3-----3----2---6-----3------6------6-----||
G-|--7------0-----3----7-----3----2---7-----5------7------7-----||
D-|--7------7-----5----5-----2----2---7-----5------7------7-----||
A-|--5------x-----5----5-----0----0---5-----0------x------x-----||
E-|---------8-----3----3---------------------------5------6-----||

Intro:
  
Мелодия:

   Dm9      Dm11/C   Gm    Gm9    A4,b9     A        Dm       Am9,11
				               P                    ~~~~
E--/5-|-5/6-6---------------------|-
B|-----5-3-6--------|-----3^2-3/5---/8-|-8-/10-10---------|-
G|---2--------------|---3---------------------|-
D---------------------|-
A---------------------|-
E---------------------|-

   Dm9      Dm11/C   Gm         Gm9     A4,b9     A     Dm9   Dm/A Dm/Bb
				          ~~~        P             H P   ~~~~
E-6/8-|-8---6-6---5-5-------------|-
B|-----5-3-6----------8---|-----3^2-3/5---6-|-5^6^3-3-----|-
G|---2--------------------|---3---------------|-
D---------------------|-
A---------------------|-
E---------------------|-

Перебор:

   Dm      Dm11/C    Gm      Gm9      C11/Bb  C9        Dm    Am9,11
E------|-------3----------0----0---|-
B|-------6-6-------|------3---------|-------1-3--3--3-|-----6-3-----3--|-
G|-----7-----0-----|-----3----3-----|-----0-----0----0|-------5------5-|-
D|---7---------7---|----5-------3---|---3-------------|---7-------5----|-
A|-5---------------|---5----------2-|-1-------3-------|-5-----0--0-----|-
E|---------8-----8-|-3-------------------------|-

   Dm      Dm11/C    Gm      Gm9      C11/Bb  C9        Dm    Am9,11
E------|-------3----------0----0---|-
B|-------6-6-------|------3---------|-------1-3--3--3-|-----8}5-----5--|-
G|-----7-----0-----|-----3----3-----|-----0-----0----0|------}6------6-|-
D|---7---------7---|----5-------3---|---3-------------|---8--}7---7----|-
A|-5---------------|---5----------2-|-1-------3-------|-0--------0-----|-
E|---------8-----8-|-3-------------------------|-

Эл. гитара:
                             (2-раза)
  Dm9      Bb(#11)   C11     Am(b6)    Bb2              C4         C
E|---0-------0-----|---0-------0-----|-----1------1---|-----1-------0---|-
B|-----6-------6---|-----6-------6---|---1---1--1---1-|---1---1---1---1-|-
G|o------7---------|-------0--------o----------o|-
D|o0--------------------o----------o|-
A------|---------0-------|-1--------------|-3-------3-------|-
E|---------6-------|-8--------------------------|-
						       
привев:

   F       Bb2       C(4)              F      Bb2       C       Dm7
E|-----1-------1---|-----1-------0-1-|-----1------1---|-----1-------0-1|-
B|---1---1---1---1-|---1---1---1-----|---1---1--1---1-|---1---1---1----|-
G----------------------|-
D-----------------|---------0------|-
A|---------1-------|-3-------3-------|--------1-------|-3--------------|-
E|-1---------------------|-1-------------------|-

   F       Bb2       C(4)    A7        Dm9    C11       G
E|-----1-------1---|-----1---0-----0-|---0-------0----|---10-----------|-
B|---1---1---1---1-|---1---1---2-----|-----6-------6--|-----8-------8--|-
G--------0---|-------7--------|-------7---7---7|-
D------------|-0-------------------|-
A|---------1-------|-3-------------------------|-
E|-1---------------------|---------8------|-7--------------|-

   Bb2     C4        F  Dm7    Bb2 C4,7  F   Dm7   Bb2  Gm7,
E|-----1-------1---|-5-------|-6-------|-5-------|-6--------
B|---1---1---1---1-|-6-------|-6-------|-6-------|-6--------
G------|-5-------|-5-------|-5-------|-5--------
D------|---------|---------|---------|----------
A|-1-------3-------|---------|---------|---------|----------
E------|---------|---------|---------|----------
		    
 Мелодия:

  Dm9      Dm/C      Gm       Gm9             A4,b9        A
				           P                  P
E--3/5-|-5-/6-6----------------------------|-
B|-----5-3-6--------6-8^65-6--8-|(8)----3^2-3/5-----8-|-
G|---2---------------------------|-----3---------------|-
D------------------------------|-
A------------------------------|-
E------------------------------|-

   Dm            Am9,11              Dm9             Dm11/C
	   ~~~~             P                    P
E---13---12-12^10------|---------12^10--(13)-13-13-12-10-|-
B|-----10-----10----------------10-|(10)---10-------(15)-15-15-13-11-|-
G|-8/10-----------------------12-------------------------|-
D--------------------------------------------|-
A--------------------------------------------|-
E--------------------------------------------|-

   Gm                Gm9           A4,b9         A
	        H P P           P               H P           P
E|-12----6--6^8^6^5-6---5-------|-------5---------------------|--------
B----------------8^6-|-8---------6^5^6-----5-------|--------
G----------------------------------7^5-|--------
D--------------------------------------|--------
A--------------------------------------|--------
E--------------------------------------|--------

   Dm9                Am4,9     Dm9
		           P            ~~~~~
E|----------5-6-8-6---6^5-----------------------------------
B|---------6--------------8-6-|-8/10------------------------------------
G|-7------7-------------------------------------------------
D-----------------------------------------------
A-----------------------------------------------
E-----------------------------------------------

Кода:

   C4                        C         G       C2        D4...
E|-----1-------1---|-----1-------0---|-----3-------3--------
B|---1---1---1---1-|---1---1---1---1-|---3---3---3---3-|-etc...---------
G-----------------------
D-----------------------
A|-3-------3-------|-3-------3-------|---------3------------
E------------|-3--------------------




  Сокращения:

    1      ~~~~        H         P                            
-------------------------------------------------------------
---9b------7----------9^11-----11^9----------x---------------
-------------------------------------------------------------
  Бенд     вибрато  hammer-on/pull-off   глушение

       tr~~~~~                                  
-----------------}7---------------
-----9(11)-------}6-------4/5-8--
-----------------}5---------------
					   
     трель      арпеджио     слайды  
						     
Слова:

He´s just the kind of man
You hear about
Who leaves his family for
An easy out
They never saw the signs
He never said a word
He couldn´t take another day

Carry me to the shoreline
Bury me in the sand
Walk me across the water
And maybe you´ll understand

Once the stone
You´re crawling under
Is lifted off your shoulders
Once the cloud that´s raining
Over you head disappears
The noise that you´ll hear
Is the crashing down of Hollow Years

She´s not the kind of girl 
you hear about
She´ll never want another
She´ll never be without 
She´ll give you all the signs
She´ll tell you everything
Turn around and walk away

Carry me to the shoreline
Bury me in the sand
Walk me across the water
And maybe you´ll understand
Once the stone
You´re crawling under
Is lifted off your shoulders
Once the cloud that´s raining
Over you head disappears
The noise that you´ll hear
Is the crashing down of Hollow Years
Carry me to the shoreline
Bury me in the sand
Walk me across the water
And maybe you´ll understand

Once the stone
You´re crawling under
Is lifted off your shoulders
Once the cloud that´s raining
Over you head disappears
The noise that you´ll hear
Is the crashing down of Hollow Years

P.S.
Если где ошибся то сильно не судите. Я в 3 часа ночи писал! 

(с)DiAnno для Настеньки [email protected] 


Текст, аккорды и табулатура для песни "Hollow Years", исполняет "Dream Theater".
Используемые в песне аккорды можно найти в разделе Как брать аккорды. Аккорды для шестиструнной гитары. Другие песни можно найти на нашем сайте, воспользовавшись алфавитным указателем вверху страницы.


 
Ошибка в тексте? Выделите ошибку и нажмите Ctrl+Enter