Dream Theater
Six Degrees of Inner Turbulence
.The Glass Prison.
6 String Bass (B E A D G C)

    n.h.                                              3x
||-----------14----13-------------11-------11-------11-||
|o--------16----16----14-----14-12---12-13----13-14----o|
||--16~~~~~~~~~~~~~~~~~~~~~~~~~~~~~~~~~~~~~~~~~~~~~~~~~||
||-----------------------------------------------------||
|o-----------------------------------------------------o|
||------0-----------------0----------------------------||

4/4 (bass 2 plays intro riff over this)
                                                     |--3--|
  W      +(H)   E E E   +W      Q.  Q.  Q.   W       s s s s   E  E
|-------|-------------|-------|------------|-------|----------------|
|-------|-------------|-------|------------|-------|----------------|
|-------|-------------|-------|------------|-------|----------------|
|-------|-------------|-------|------------|-------|----------------|
|-------|-------------|-------|------------|-------|----------------|
|-0-----|-(0)---0-0-0-|-(0)---|-0---0---0--|-0-----|-2-2-2-2---3--3-|

(Fade Out bass 2)

6/4 W  H 4/4 S S S S S S S S S S S S S S S S   S S S S S S S S S S S S
|---------||---------------------------------|-------------------------
|---------|o---------------------------------|-------------------------
|---------||---------------------------------|-------------------------
|---------||-----5---4---------2-----2-----2-|-----5---4---------2-----
|---------|o--/7---7---5---5-3---3-4---4-5---|--/7---7---5---5-3---3-4-
|---0-/x-||-0-----------0-------------------|-0-----------0-----------

 S S S 2x S   S S  S S S S S S S S S S S S S   S S S S S S S S S S S S
-------||------------------------------------|-------------------------
-------o|------------------------------------|-------------------------
-------||------------------------------------|-------------------------
-2-----||-------9----7---------5-----7---4-5-|-----5---4---------2-----
---4---o|---/10---10---9---9-7---7-7---7-----|--/7---7---5---5-3---3-4-
-----3-||-0--------------0-------------------|-0-----------0-----------

                                              (Slowing Tempo)
 S S S   S  S  S  S S S S S S S S S S S S S    S S S S S S S S S S S S
-------|-------------------------------------|-------------------------
-------|-------------------------------------|-------------------------
-------|----------------------------------6-|-------------------------
-2-----|-------9----7---------5-----7---5----|-----5---4---------2-----
---4---|---/10---10---9---9-7---7-7---7------|--/7---7---5---5-3---3-4-
-----3-|-0--------------0--------------------|-0-----------0-----------

 E E E E    W.     
---------|------|
---------|------|
---------|------|
-2-------|------| Guitar plays part below by itself once then..
---4---4|------|
-----3---|------|

          |-3-|     |-3-|      |-3-|
   S. S.  S S S S   S S S S    S S S S  S S S S S S S S S S  5x
||--------------------------|-------------------------------||
|o--------------------------|-------------------------------o|
||--------------------------|-------------------------------||
||--------------------------|-------------------5---5---5---||
|o--------------------------|---------------5h7---7---7---7-o|
||-0--0---0-0-3-0---0-0-3-0-|--0-0-3-0--5h7-----------------||

   |-3-|     |-3-|     |-3-|   |-3-|     |-3-|      |-3-|
   S S S  S  S S S  S  S S S   S S S  S  S S S   S  S S S
||---------------------------|-----------------------------|
|o---------------------------|-----------------------------|
||---------------------------|-----------------------------|
||---------------------------|-----------------------------|
|o---------------------------|-----------------------------|
||-3-2-0--0--3-2-0--0--0-0-0-|-3-2-0--0--0-0-0---0--0-0-0--|

  |-3-|     |-3-|     |-3-|   |-3-|  |-3-|
  S S S  S  S S S  S  S S S   S S S  S S S  4x
|---------------------------|---------------||
|---------------------------|---------------o|
|---------------------------|---------------||
|---------------------------|---------------||
|---------------------------|---------------o|
|-3-2-0--0--3-2-0--0--0-0-0-|-5-3-0--6-5-0--||

   |-3-|     |-3-|     |-3-|   |-3-|     |-3-|     |-3-|
   S S S  S  S S S  S  S S S   S S S  S  S S S  S  S S S
||---------------------------|----------------------------|
|o---------------------------|----------------------------|
||---------------------------|----------------------------|
||---------------------------|----------------------------|
|o---------------------------|----------------------------|
||-6-5-3--3--6-5-3--3--3-3-3-|-6-5-3--3--3-3-3--3--3-3-3--|

  |-3-|     |-3-|     |-3-|   |-3-|  |-3-|
  S S S  S  S S S  S  S S S   S S S  S S S
|---------------------------|---------------||
|---------------------------|---------------o|
|---------------------------|---------------||
|---------------------------|---------------||
|---------------------------|------------3--o|
|-6-5-3--3--6-5-3--3--3-3-3-|-6-5-3--5-6----||

   |-3-|     |-3-|     |-3-|   |-3-|     |-3-|     |-3-|
   S S S  S  S S S  S  S S S   S S S  S  S S S  S  S S S
||---------------------------|----------------------------|
|o---------------------------|----------------------------|
||---------------------------|----------------------------|
||---------------------------|----------------------------|
|o---------------------------|----------------------------|
||-5-3-2--2--5-3-2--2--2-2-2-|-5-3-2--2--2-2-2--2--2-2-2--|




  |-3-|     |-3-|     |-3-|   |-3-|  |-3-|
  S S S  S  S S S  S  S S S   S S S  S S S       W
|---------------------------|---------------||--------|
|---------------------------|---------------o|--------|
|---------------------------|---------------||--------|
|---------------------------|---------------||--------|
|---------------------------|---------------o|--------|
|-5-3-2--2--5-3-2--2--2-2-2-|-5-3-2--3-5-6--||--------|

2:56 (Now we.re getting somewhere!)

  |-3-|     |-3-|  |-3-|     |-3-|
  S S S  S  S S S  S S S  S  S S S  S  S
|-----------------------------------------|
|-----------------------------------------|
|-----------------------------------------|
|-----------------------------------------|
|-8-7-------7-5--------------8-7----------|
|-----0--0------0--7-6-0--0------0--0--0--|

  |-3-|     |-3-|  |-3-|     |-3-|
  S S S  S  S S S  S S S  S  S S S   S S
|-----------------------------------------|
|-----------------------------------------|
|-----------------------------------------|
|-----------------------------------------|
|-8-7-------7-5--------------8-7----------|
|-----0--0------0--7-6-0--0------0---7-6--|

  |-3-|     |-3-|  |-3-|     |-3-|
  S S S  S  S S S  S S S  S  S S S  S  S
|-----------------------------------------|
|-----------------------------------------|
|-----------------------------------------|
|-----------------------------------------|
|-8-7-------7-5--------------8-7----------|
|-----0--0------0--7-6-0--0------0--0--0--|

  |-3-|     |-3-|  |-3-|    |----6----|    
  S S S  S  S S S  S S S  S S S S S S S S
|-----------------------------------------|
|-----------------------------------------|
|-----------------------------------------|
|-----------------------------------------|
|-8-7-------7-5---------------5-8-7-5-----|
|-----0--0------0--7-6-0--5-6---------6-5-|

  |-3-|     |-3-|  |-3-|      |-3-|
  S S S  S  S S S  S S S   S  S S S  S  S
||-----------------------------------------|
|o-----------------------------------------|
||-----------------------------------------|
||-----------------------------------------|
|o-8-7-------8-7----5-7--------8-7---------|
||-----0--0------0------0---0------0--0--0-|


  |-3-|     |-3-|  |-3-|      |-3-|
  S S S  S  S S S  S S S   S  S S S  S  S
|-----------------------------------------||
|-----------------------------------------o|
|-----------------------------------------||
|-----------------------------------------||
|-8-7-------8-7----8-7--------8-7---------o|
|-----0--0------0------0---0------0--0--0-||

  |-3-|     |-3-|  |-3-|      |-3-|
  S S S  S  S S S  S S S   S  S S S  S  S
||-----------------------------------------|
|o-----------------------------------------|
||-----------------------------------------|
||-----------------------------------------|
|o-8-7-------5-7----8-7--------8-7---------|
||-----0--0------0------0---0------0--0--0-|

  |-3-|     |-3-|  |-3-|      |-3-|
  S S S  S  S S S  S S S   S  S S S  S  S
|-----------------------------------------||
|-----------------------------------------o|
|-----------------------------------------||
|-----------------------------------------||
|-5-7-------8-7----8-7--------8-7---------o|
|-----0--0------0------0---0------0--0--0-||

   |-3-|        |-3-|  |-3-|     |-3-|
   S S S  S  S  S S S  S S S  S  S S S  S  S  4x
||--------------------------------------------||
|o--------------------------------------------o|
||--------------------------------------------||
||--------------------------------------------||
|o--------------------------------------------o|
||-6-5-3--3--3--6-5-3--6-5-3--3--6-5-3--3--3--||

   |-3-|        |-3-|  |-3-|     |-3-|
   S S S  S  S  S S S  S S S  S  S S S  S  S  4x
||--------------------------------------------||
|o--------------------------------------------o|
||--------------------------------------------||
||--------------------------------------------||
|o--------------------------------------------o|
||-5-3-2--2--2--5-3-2--5-3-2--2--5-3-2--2--2--||

          |-3-|     |-3-|      |-3-|
   S. S.  S S S S   S S S S    S S S S  S S S S S S S S S S 4x
||--------------------------|-------------------------------||
|o--------------------------|-------------------------------o|
||--------------------------|-------------------------------||
||--------------------------|-------------------5---5---5---||
|o--------------------------|---------------5h7---7---7---7-o|
||-0--0---0-0-3-0---0-0-3-0-|--0-0-3-0--5h7-----------------||




   |-3-|     |-3-|     |-3-|   |-3-|     |-3-|      |-3-|
   S S S  S  S S S  S  S S S   S S S  S  S S S   S  S S S
||---------------------------|-----------------------------|
|o---------------------------|-----------------------------|
||---------------------------|-----------------------------|
||---------------------------|-----------------------------|
|o---------------------------|-----------------------------|
||-3-2-0--0--3-2-0--0--0-0-0-|-3-2-0--0--0-0-0---0--0-0-0--|

  |-3-|     |-3-|     |-3-|   |-3-|  |-3-|
  S S S  S  S S S  S  S S S   S S S  S S S  4x
|---------------------------|---------------||
|---------------------------|---------------o|
|---------------------------|---------------||
|---------------------------|---------------||
|---------------------------|---------------o|
|-3-2-0--0--3-2-0--0--0-0-0-|-5-3-0--6-5-0--||

   |-3-|     |-3-|     |-3-|   |-3-|     |-3-|     |-3-|
   S S S  S  S S S  S  S S S   S S S  S  S S S  S  S S S
||---------------------------|----------------------------|
|o---------------------------|----------------------------|
||---------------------------|----------------------------|
||---------------------------|----------------------------|
|o---------------------------|----------------------------|
||-6-5-3--3--6-5-3--3--3-3-3-|-6-5-3--3--3-3-3--3--3-3-3--|

  |-3-|     |-3-|     |-3-|   |-3-|  |-3-|
  S S S  S  S S S  S  S S S   S S S  S S S
|---------------------------|---------------||
|---------------------------|---------------o|
|---------------------------|---------------||
|---------------------------|---------------||
|---------------------------|------------3--o|
|-6-5-3--3--6-5-3--3--3-3-3-|-6-5-3--5-6----||

   |-3-|     |-3-|     |-3-|   |-3-|     |-3-|     |-3-|
   S S S  S  S S S  S  S S S   S S S  S  S S S  S  S S S
||---------------------------|----------------------------|
|o---------------------------|----------------------------|
||---------------------------|----------------------------|
||---------------------------|----------------------------|
|o---------------------------|----------------------------|
||-5-3-2--2--5-3-2--2--2-2-2-|-5-3-2--2--2-2-2--2--2-2-2--|

                            |1.2.3.           4.
  |-3-|     |-3-|     |-3-|   |-3-|  |-3-|     |-3-| |-3-| |-3-| |-3-|
  S S S  S  S S S  S  S S S   S S S  S S S     S S S S S S S S S S S S   
|---------------------------|---------------||------------------------|
|---------------------------|---------------o|------------------------|
|---------------------------|---------------||------------------------|
|---------------------------|---------------||------------------------|
|---------------------------|---------------o|------------------------|
|-5-3-2--2--5-3-2--2--2-2-2-|-5-3-2--3-5-6--||-5-3-2-3-5-6-3-2-0-2-3-5|

(4:36 Chorus Time!) 

  E  E  E  E  S S S S   E  E  S S    +W    E  E  E  E   S S S S
|---------------------|-----------|------|----------------------|
|---------------------|-----------|------|----------------------|
|---------------------|-----------|------|----------------------|
|----2--0--5--2-0-----|----2--0---|------|----2--0--5--2-0-----|
|-2---------------0-5-|-2-------0-|--(0)-|-2----------------0-5-|
|---------------------|-----------|------|----------------------|

  E  E  +E   S S S    +W      E  E  E  E  S S S S E  E  E  2x
|------------------|-------||------------------------------||
|------------------|-------|o------------------------------o|
|------------------|-------||------------------------------||
|----2--(2)--------|-------||----2--0--5--2-0--------2--0--||
|-2---------4-0---|-------|o-2---------------0-5-2--------o|
|----------------3-|--(3)--||------------------------------||

  E  E  E  E  S S S S E  E  E S    +W     E  E  E  E  S S S S
|-------------------------------|-------|---------------------|
|-------------------------------|-------|---------------------|
|-------------------------------|-------|---------------------|
|----------1--------------------|-------|----------1----------|
|----3--1-----3-1---1----3--1---|-------|----3--1-----3-1---1-|
|-3---------------1---3-------1-|--(1)--|-3---------------1---|

  E  E  S S S E  S E    E  E  E  E  S S S S E  E  E S    +W
|---------------------|-------------------------------|-------|
|---------------------|-------------------------------|-------|
|---------------------|-------------------------------|-------|
|-------8-7-----------|----------1--------------------|-------|
|----3------8-6--8-6--|----3--1-----3-1---1----3--1---|-------|
|-3-------------------|-3---------------1---3-------1-|--(1)--|

                              |----6----|   |--3--|            |-3-|
  E  E  E  E  S S S S E  E  S S S S S S S   E  E  E  E  S S +W E E E
|-----------------------------------------|----------------|---------|
|-----------------------------------------|----------------|---------|
|-----------------------------------------|----------------|---------|
|----------1----------------8-7-----------|----------------|---------|
|----3--1-----3-1---1----3------8-6-8-5-3-|----------------|---------|
|-3---------------1---3-------------------|-3--5--2--0--0-0|---0-0-0-|
                                  ___________________________________
                                 |1.
   S S S S S S S S S S S S S S S   S S S S S S S S S S S S S S S S 
||-------------------------------|---------------------------------||
|o-------------------------------|---------------------------------o|
||-------------------------------|---------------------------------||
||-----5---4---------2-----2-----|-----5---4---------2-----2-----2-||
|o--/7---7---5---5-3---3-4---4---|--/7---7---5---5-3---3-4---4-5---o|
||-0-----------0---------------3-|-0-----------0-------------------||
 ____________________________________
|2.
                                      (Slowing Tempo)        
|------------------------------------|--------------------------------|
|------------------------------------|--------------------------------|
|------------------------------------|--------------------------------|
|-------9----7---------5-----7---4-5-|-----5---4---------2-----2------|
|---/10---10---9---9-7---7-7---7-----|--/7---7---5---5-3---3-4---4---4|
|-0--------------0-------------------|-0-----------0---------------3--|

  Wx4 3/4 S S S S  E S S S S 8x 12/8  S S S S E S S S S 8x  
|------||--------------------||    ||-------------------||
|------|o--------------------o|    |o-------------------o|
|------||--------------------||    ||-------------------||
|------||--------------------||    ||-------------------||
|------|o--------------------o|    |o-------------------o|
|------||-1-0-0-0----1-0-0-0-||    ||-1-0-0-0---1-0-0-0-||

  S S S S S S S S S S S S   S S S S S S S S S S S S
|-------------------------|-------------------------|
|-------------------------|-------------------------|
|-------------------------|-------------------------|
|-----------3-2-----------|-------------------------|
|-----------------5-------|-----------6-5-----------|
|-0-7-6-0-1-----0---0-6-5-|-0-7-6-0-1-----0-7-0-5-4-|

  S S S S S S S S S S S S   S S S S S S S S S S S S
|-------------------------|-------------------------|
|-------------------------|-------------------------|
|-------------------------|-------------------------|
|-----------3-2-----------|---6-5-----4-3---2-------|
|-----------------5-------|-5-----4-3-----2---1-6---|
|-0-7-6-0-1-----0---0-6-5-|-----------------------5-|

  S S S S S S S S S S S S   S S S S S S S S S S S S
|-------------------------|-------------------------|
|-------------------------|-------------------------|
|-------------------------|-------------------------|
|-----------3-2-----------|-------------------------|
|-----------------5-------|-----------6-5-----------|
|-0-7-6-0-1-----0---0-6-5-|-0-7-6-0-1-----0-7-0-5-4-|

  S S S S S S S S S S S S   S S S S S S S S S S S S
|-------------------------|-------------------------|
|-------------------------|-------------------------|
|-------------------------|-------------------------|
|-----------3-2-----------|-7-6---------------------|
|-----------------5-------|-----8-7-6-5-----2-1-----|
|-0-7-6-0-1-----0---0-6-5-|-------------7-6-----3-2-|

   S S S S E S S S S  3x S S S S E S S S S S S
||---------------------||-----------------------|
|o---------------------o|-----------------------|
||---------------------||-----------------------|
||---------------------||-----------------------|
|o---------------------o|---------------5-4-----|
||-1-0-0-0---1-0-1-0-0-||-1-0-0-0---0-3-----3-2-|

   S S S S E S S S S  3x S S S S S S S S S S S S
||---------------------||-------------------------|
|o---------------------o|-------------------------|
||---------------------||-------------------------|
||---------------------||-------------------------|
|o---------------------o|-----8-7---------5-4-----|
||-1-0-0-0---1-0-1-0-0-||-0-6-----6-5-0-3-----3-2-|

   S S S S S S S S S S S S   S S S S S S S S S S S S S 
||-------------------------|---------------------------|
|o-------------------------|---------------------------|
||-------------------------|---------------------------|
||-------------------------|---------------------------|
|o-7-5-8---5---------------|-7-5-7-8---5---------------|
||-------7---6-0-0-0-0-0-0-|---------7---6-0-0-0-0-0-0-|
                           ____________________________________________
                          |1.
                              |---5---| |---5---|   |----5----|
  S S S S S S S S S S S S   S S S S S S S S S S S   S  S  S S S   S S 
|-------------------------|------------------------------------------||
|-------------------------|---------------------------------9-10--9--o|
|-------------------------|-------------------6-7- /9-10-12--------12||
|-------------------------|---------5-7-5-7-9------------------------||
|-7-5-8---5---------------|-7-5-7-8----------------------------------o|
|-------7---6-0-0-0-0-0-0-|------------------------------------------||
 _________________________________________________________
|2. 
     |---5---|  |---5---|   |-----5----|  
  S  S S S S S  S S S S S   S S  S  S  S  S  S  S S  S
|----------------------------------------------10-9-------|
|-----------------------------------9-10--9---(15-14)-10-|
|---------------------6-7--/9-10-12---------12------------|
|----------5-7--5-7-9-------------------------------------|
|-7--5-7-8------------------------------------------------|
|---------------------------------------------------------|

12/8
   S S S S S S   S S S S S 3x S S S S S S  S S S S S   S  S S S S
||-------------------------||------------------------|-------------
|o-------------------------o|------------------------|-------------
||-------------------------||------------------------|-------------
||---4---2-----------------||---4---2----------------|-------------
|o-----------4---3---------o|-----------4--3---------|-------------
||-2---2---2-------2-4-2-5-||-2---2---2------2-4-2-0-|-5--5-5-5-5--

 S S S S S S S S S S S S    S S S S S S   S S S S S 3x
-------------------------||-------------------------||
-------------------------|o-------------------------o|
-------------------------||-------------------------||
-------7-7-7-7-7-7-7-7-7-||---4---2-----------------||
-------------------------|o-----------4---3---------o|
-5-5-5-------------------||-2---2---2-------2-4-2-5-||

12/8
  S S S S S S   S S S S S   S  S S S S S  S S S S S S  S. S. S. S.
|-------------------------|---------------------------------------|
|-------------------------|---------------------------------------|
|-------------------------|---------------------------------------|
|---4---2-----------------|----------0-7--7-7-7-7-5-7-/8--7--5--3-|
|-----------4---3---------|---------------------------------------|
|-2---2---2-------2-4-2-0-|-5--5-5-5------------------------------|

12/8
   S S S S S S   S S S S S 3x S S S S S S  S S S S S   S  S S S S
||-------------------------||------------------------|-------------|
|o-------------------------o|------------------------|-------------|
||-------------------------||------------------------|-------------|
||---4---2-----------------||---4---2----------------|-------------|
|o-----------4---3---------o|-----------4--3---------|-------------|
||-2---2---2-------2-4-2-5-||-2---2---2------2-4-2-0-|-5--5-5-5-5--|

12/8
  S S S S E  S S  S. S.   S S S S E S S S S S   S S S S E S S S S S 
|----------------------||---------------------|---------------------|
|----------------------|o---------------------|---------------------|
|----------------------||---------------------|---------------------|
|----------------------||---------------------|---------------------|
|----------------------|o---------------------|---------------------|
|-5-5-5-5-3--3-3--6--6-||-1-0-0-0---1-0-1-0-0-|-1-0-0-0---1-0-1-0-0-|
                       _________________________  
 12/8                 |1.                      
  S S S S S S S E S S   S S S S E S S S S S S
|---------------------|-----------------------||
|---------------------|-----------------------o|
|---------------------|-----------------------||
|---------------------|-----------------------||
|---------------------|---------------5-4-----o|
|-1-0-0-1-0-0-0---1-0-|-1-0-0-0---0-3-----3-2-||
 __________________________
|2.
  S S S S S S S S S S S S   S S S S E S S S S S
|-------------------------|---------------------|
|-------------------------|---------------------|
|-------------------------|---------------------|
|-------------------------|---------------------|
|-----8-7---------5-4-----|---------------------|
|-0-6-----6-5-0-3-----3-2-|-1-0-0-0---1-0-1-0-0-|

15/8                        12/8                  9/8
  S S S S E S S S S S S S S   S S S S E S S S S S   S E S S S S S S
|---------------------------|---------------------|-----------------|
|---------------------------|---------------------|-----------------|
|---------------------------|---------------------|-----------------|
|---------------------------|---------------------|-----------------|
|---------------------------|---------------------|---------5-4-----|
|-1-0-0-0---1-0-1-0-0-1-0-0-|-1-0-0-0---1-0-1-0-0-|-0---0-3-----3-2-|

12/8                   15/8                        9/8
  S S S S E S S S S S   S S S S E S S S S S S S S   S S S S E S S
|---------------------|---------------------------|---------------|
|---------------------|---------------------------|---------------|
|---------------------|---------------------------|---------------|
|---------------------|---------------------------|---------------|
|---------------------|---------------------------|---------------|
|-1-0-0-0---1-0-1-0-0-|-1-0-0-0---1-0-1-0-0-1-0-0-|-1-0-0-0---1-0-|

12/8
  S S S S S S S S S S S S
|-------------------------|
|-------------------------|
|-------------------------|
|-------------------------|
|-----8-7---------5-4-----|
|-0-6-----6-5-0-3-----3-2-|

  S S S S S S S S S S S S   S S S S S S S S S S S S
|-------------------------|-------------------------|
|-------------------------|-------------------------|
|-------------------------|-------------------------|
|-----------3-2-----------|-------------------------|
|-----------------5-------|-----------6-5-----------|
|-0-7-6-0-1-----0---0-6-5-|-0-7-6-0-1-----0-7-0-5-4-|

  S S S S S S S S S S S S   S S S S S S S S S S S S
|-------------------------|-------------------------|
|-------------------------|-------------------------|
|-------------------------|-------------------------|
|-----------3-2-----------|---6-5-----4-3---2-------|
|-----------------5-------|-5-----4-3-----2---1-6---|
|-0-7-6-0-1-----0---0-6-5-|-----------------------5-|

  S S S S S S S S S S S S   S S S S S S S S S S S S
|-------------------------|-------------------------|
|-------------------------|-------------------------|
|-------------------------|-------------------------|
|-----------3-2-----------|-------------------------|
|-----------------5-------|-----------6-5-----------|
|-0-7-6-0-1-----0---0-6-5-|-0-7-6-0-1-----0-7-0-5-4-|

  S S S S S S S S S S S S   S S S S S S S S S S S S
|-------------------------|-------------------------|
|-------------------------|-------------------------|
|-------------------------|-------------------------|
|-----------3-2-----------|-7-6---------------------|
|-----------------5-------|-----8-7-6-5-----2-1-----|
|-0-7-6-0-1-----0---0-6-5-|-------------7-6-----3-2-|

15/8                        12/8                  
  S S S S E S S S S S S S S     S S S S E S S S S S
||---------------------------||---------------------|
|o---------------------------o|---------------------|
||---------------------------||---------------------|
||---------------------------||---------------------|
|o---------------------------o|---------------------|
||-1-0-0-0---1-0-1-0-0-1-0-0-||-1-0-0-0---1-0-1-0-0-|

                         15/8                        
  S S S S E S S S S S S    S S S S E S S S S S S S S
|-----------------------||---------------------------||
|-----------------------|o---------------------------o|
|-----------------------||---------------------------||
|-----------------------||---------------------------||
|---------------5-4-----|o---------------------------o|
|-1-0-0-0---0-3-----3-2-||-1-0-0-0---1-0-1-0-0-1-0-0-||

12/8
  S S S S E S S S S S   S S S S S S S S S S S S
|---------------------|-------------------------|
|---------------------|-------------------------|
|---------------------|-------------------------|
|---------------------|-------------------------|
|---------------------|-----8-7---------5-4-----|
|-1-0-0-0---1-0-1-0-0-|-0-6-----6-5-0-3-----3-2-|

   S S S S S S S S S S S S   S S S S S S S S S S S S S 
||-------------------------|---------------------------|
|o-------------------------|---------------------------|
||-------------------------|---------------------------|
||-------------------------|---------------------------|
|o-7-5-8---5---------------|-7-5-7-8---5---------------|
||-------7---6-0-0-0-0-0-0-|---------7---6-0-0-0-0-0-0-|
                           ____________________________________________
                          |1. 
                              |---5---| |---5---|   |----5----|
  S S S S S S S S S S S S   S S S S S S S S S S S   S  S  S S S   S S 
|-------------------------|------------------------------------------||
|-------------------------|---------------------------------9-10--9--o|
|-------------------------|-------------------6-7--/9-10-12--------12||
|-------------------------|---------5-7-5-7-9------------------------||
|-7-5-8---5---------------|-7-5-7-8----------------------------------o|
|-------7---6-0-0-0-0-0-0-|------------------------------------------||

|2. 
     |---5---|  |---5---|   |-----5----|  
  S  S S S S S  S S S S S   S S  S  S  S  S  S  S S  S
|----------------------------------------------10-9-------|
|-----------------------------------9-10--9---(15-14)-10-|
|---------------------6-7--/9-10-12---------12------------|
|----------5-7--5-7-9-------------------------------------|
|-7--5-7-8------------------------------------------------|
|---------------------------------------------------------|

   S S S S S S   S S S S S 3x S S S S S S E S S S S S
||-------------------------||-------------------------|
|o-------------------------o|-------------------------|
||-------------------------||-------------------------|
||---4---2-----------------||---4---2-----------------|
|o-----------4---3---------o|-----------4---3---------|
||-2---2---2-------2-4-2-5-||-2---2---2-------2-4-2-0-|

  S E S S S S S E S S S S   S E S S S S S S S S
|-------------------------|-----------------------|
|-------------------------|-----------------------|
|-------------------------|-----------------------|
|-----------------------0-|-7---7-7-7-7-7-7-7-7--|
|-------------------------|-----------------------|
|-5---5-5-5-5-5---5-5-5---|-----------------------|

   S S S S S S S S S S S S 3x S E S S S S S E S S S S
||-------------------------||-------------------------|
|o-------------------------o|-------------------------|
||-------------------------||-------------------------|
||-2---4-2-----2---4-2-----||-----------------------0-|
|o---------4-----------4---o|-------------------------|
||---2-------2---2-------2-||-5---5-5-5-5-5---5-5-5---|

  S E S S S S S S S S
|----------------------|
|----------------------|
|----------------------|
|-7---7-7-7-7-7-7-7-7-|
|----------------------|
|----------------------|

   S S S S S S   S S S S S 3x S S S S S S E S S S S S
||-------------------------||-------------------------|
|o-------------------------o|-------------------------|
||-------------------------||-------------------------|
||---4---2-----------------||---4---2-----------------|
|o-----------4---3---------o|-----------4---3---------|
||-2---2---2-------2-4-2-5-||-2---2---2-------2-4-2-0-|


|-------------------------|
|-------------------------|
|-------------------------|
|-------------7---7-7-7-7-|
|-------------------------|
|-5---5-5-5-5-------------|
4/4 
  S S S S S S S S S S S S S S S S   S S S S S S S S S S S S S S S S S
|---------------------------------|-----------------------------------|
|-9---7-9-7-----------------------|-----------------------------------|
|---9-------97-5-7---5-7-5-----5-|-----------------------------------|
|-------------------7-------7-5---|-7---5-7-5-------------------------|
|---------------------------------|---7-------75-3-5---3-5-3---------|
|---------------------------------|-------------------5-------5-3-4-5|
              
 Its Faster!                                     __________________
                                                |Guitar Enters
  S S S S S S S S S S S S S S S S   S S S S S S S S S S S S S S S S
|---------------------------------|---------------------------------|
|---------------------------------|---------------------------------|
|-5---7---5-------5---7---5-------|-5---7---5-------5---7---5-------|
|---7---7---7-5-7---7---7---7-5-7-|---7---7---7-5-7---7---7---7-5-7-|
|---------------------------------|---------------------------------|
|---------------------------------|---------------------------------|

  S S S S S S S S S S S S S S S S   S S S S S S S S 
|---------------------------------|-----------------|
|---------------------------------|-----------------|
|-5---7---5-------5---7---5-------|-5-7-^-r-5-------|
|---7---7---7-5-7---7---7---7-5-7-|-----------7-5-7-|
|---------------------------------|-----------------|
|---------------------------------|-----------------|

  S S S S S S S S S S S S S S S S   S S S S S S S S S S S S S S S S
|---------------------------------|---------------------------------|
|---------------------------------|---------------------------------|
|-5---7---5-------5---7---5-------|-5---7---5-------5-7-5-----------|
|---7---7---7-5-7---7---7---7-5-7-|---7---7---7-5-7-------7-5---5-7-|
|---------------------------------|---------------------------7-----|
|---------------------------------|---------------------------------|

  S S S S S S S S S S S S S S S S   S S S S S S S S S S S S S S S S
|---------------------------------|---------------------------------|
|---------------------------------|---------------------------------|
|-5---7---5-------5---7---5-------|-5---7---5-------5-7-^-r-5-------|
|---7---7---7-5-7---7---7---7-5-7-|---7---7---7-5-7-----------7-5-7-|
|---------------------------------|---------------------------------|
|---------------------------------|---------------------------------|

  S S S S S S S S S S S S S S S S   S S S S S S S S S Q         S S
|---------------------------------|---------------------------------|
|---------------------------------|---------------------------------|
|-5---7---5-------5---7---5-------|-5---7---5-------------------7-9-|
|---7---7---7-5-7---7---7---7-5-7-|---7---7---7-5-6-7---------------|
|---------------------------------|---------------------------------|
|---------------------------------|---------------------------------|

  S S S S S S S S S S S S S S S S   S S S S S S S S S S S S S S S S
|---------------------------------|---------------------------------|
|-7---9---7-------7---9---7-------|-7---9---7-------7-9-^-r-7-------|
|---9---9---9-7-9---9---9---9-7-9-|---9---9---9-7-9-----------9-7-9-|
|---------------------------------|---------------------------------|
|---------------------------------|---------------------------------|
|---------------------------------|---------------------------------|

  S S S S S S S S S S S S S S S S   S S S S S S S S S S S S S S S S
|---------------------------------|---------------------------------|
|-7---9---7-------7---9---7-------|-7---9---7-------7-9-7-----------|
|---9---9---9-7-9---9---9---9-7-9-|---9---9---9-7-9-------9-7---7-9-|
|---------------------------------|---------------------------9-----|
|---------------------------------|---------------------------------|
|---------------------------------|---------------------------------|

  S S S S S S S S S S S S S S S S   S S S S S S S S S S S S S S S S
|---------------------------------|---------------------------------|
|-7---9---7-------7---9---7-------|-7---9---7-------7-9-^-r-7-------|
|---9---9---9-7-9---9---9---9-7-9-|---9---9---9-7-9-----------9-7-9-|
|---------------------------------|---------------------------------|
|---------------------------------|---------------------------------|
|---------------------------------|---------------------------------|

  S S S S S S S S S S S S S S S S   S S S S S S S S S S S S S S S S
|---------------------------------|---------------------------------|
|-7---9---7-------7---9---7-------|-7---9---7-------7-9-7-----------|
|---9---9---9-7-9---9---9---9-7-9-|---9---9---9-7-9-------9-7-------|
|---------------------------------|---------------------------9-5-7-|
|---------------------------------|---------------------------------|
|---------------------------------|---------------------------------|

  S S S S S S S S S S S S S S S S   S S S S S S S S S S S S S S S S
|---------------------------------|---------------------------------|
|---------------------------------|---------------------------------|
|-5---7---5-------5---7---5-------|-5---7---5-------5-7-^-r-5-------|
|---7---7---7-5-7---7---7---7-5-7-|---7---7---7-5-7-----------7-5-7-|
|---------------------------------|---------------------------------|
|---------------------------------|---------------------------------|

  S S S S S S S S S S S S S S S S   S S S S S S S S S S S S S S S S
|---------------------------------|---------------------------------|
|---------------------------------|---------------------------------|
|-5---7---5-------5---7---5-------|-5---7---5-------5-7-5-----------|
|---7---7---7-5-7---7---7---7-5-7-|---7---7---7-5-7-------7-5---5-7-|
|---------------------------------|---------------------------7-----|
|---------------------------------|---------------------------------|

  S S S S S S S S S S S S S S S S   S S S S S S S S S S S S S S S S
|---------------------------------|---------------------------------|
|---------------------------------|---------------------------------|
|-5---7---5-------5---7---5-------|-5---7---5-------5-7-^-r-5-------|
|---7---7---7-5-7---7---7---7-5-7-|---7---7---7-5-7-----------7-5-7-|
|---------------------------------|---------------------------------|
|---------------------------------|---------------------------------|


  S S S S S S S S S S S S S S S S   S S S S S S S S S S S S S S S S
|---------------------------------|---------------------------------|
|---------------------------------|---------------------------------|
|-5---7---5-------5---7---5-------|-5---7---5-------5-7-5-------7-9-|
|---7---7---7-5-7---7---7---7-5-7-|---7---7---7-5-7-------7-5-------|
|---------------------------------|---------------------------7-----|
|---------------------------------|---------------------------------|


  S S S S S S S S S S S S S S S S   S S S S S S S S S S S S S S S S
|---------------------------------|---------------------------------|
|-7---9---7-------7---9---7-------|-7---9---7-------7-9-^-r-7-------|
|---9---9---9-7-9---9---9---9-7-9-|---9---9---9-7-9-----------9-7-9-|
|---------------------------------|---------------------------------|
|---------------------------------|---------------------------------|
|---------------------------------|---------------------------------|

  S S S S S S S S S S S S S S S S   S S S S S S S S S S S S S S S S
|---------------------------------|---------------------------------|
|-7---9---7-------7---9---7-------|-7---9---7-------7-9-7-----------|
|---9---9---9-7-9---9---9---9-7-9-|---9---9---9-7-9-------9-7---7-9-|
|---------------------------------|---------------------------9-----|
|---------------------------------|---------------------------------|
|---------------------------------|---------------------------------|

  S S S S S S S S S S S S S S S S   S S S S S S S S S S S S S S S S
|---------------------------------|---------------------------------|
|-7---9---7-------7---9---7-------|-7---9---7-------7-9-^-r-7-------|
|---9---9---9-7-9---9---9---9-7-9-|---9---9---9-7-9-----------9-7-9-|
|---------------------------------|---------------------------------|
|---------------------------------|---------------------------------|
|---------------------------------|---------------------------------|

  S S S S S S S S S S S S S S S S   S S S S S S S S S S S S S S S S
|---------------------------------|---------------------------------|
|-7---9---7-------7---9---7-------|-7---9---7-------7-9-7-----------|
|---9---9---9-7-9---9---9---9-7-9-|---9---9---9-7-9-------9-7-------|
|---------------------------------|---------------------------9-7-9-|
|---------------------------------|---------------------------------|
|---------------------------------|---------------------------------|

  S S S S S S S S S S S S S S S S   S S S S S S S S S S S S S S S S
|---------------------------------|---------------------------------|
|---------------------------------|---------------------------------|
|-7---9---7-------7---9---7-------|-7---9---7-------7-9-^-r-7-------|
|---9---9---9-7-9---9---9---9-7-9-|---9---9---9-7-9-----------9-7-9-|
|---------------------------------|---------------------------------|
|---------------------------------|---------------------------------|

  S S S S S S S S S S S S S S S S   S S S S S S S S S S S S S S S S
|---------------------------------|---------------------------------|
|---------------------------------|---------------------------------|
|-7---9---7-------7---9---7-------|-7---9---7-------7-9-7-----------|
|---9---9---9-7-9---9---9---9-7-9-|---9---9---9-7-9-------9-7---7-9-|
|---------------------------------|---------------------------9-----|
|---------------------------------|---------------------------------|

  S S S S S S S S S S S S S S S S   S S S S S S S S S S S S S S S S
|---------------------------------|---------------------------------|
|---------------------------------|---------------------------------|
|-7---9---7-------7---9---7-------|-7---9---7-------7-9-^-r-7-------|
|---9---9---9-7-9---9---9---9-7-9-|---9---9---9-7-9-----------9-7-9-|
|---------------------------------|---------------------------------|
|---------------------------------|---------------------------------|

  S S S S S S S S S S S S S S S S   S S S S S S S S S S S S S S S S
|---------------------------------|---------------------------------|
|---------------------------------|---------------------------------|
|-7---9---7-------7---9---7-------|-7---9---7-------7-9-7-------7-9-|
|---9---9---9-7-9---9---9---9-7-9-|---9---9---9-7-9-------9-7-------|
|---------------------------------|---------------------------9-----|
|---------------------------------|---------------------------------|

  S S S S S S S S S S S S S S S S   S S S S S S S S S S S S S S S S
|---------------------------------|---------------------------------|
|---------------------------------|---------------------------------|
|---------------------------------|---------------------------------|
|-5---7---5-------5---7---5-------|-5---7---5-------5-7-^-r-5-------|
|---7---7---7-5-7---7---7---7-5-7-|---7---7---7-5-7-----------7-5-7-|
|---------------------------------|---------------------------------|

  S S S S S S S S S S S S S S S S   S S S S S S S S S S S S S S S S
|---------------------------------|---------------------------------|
|---------------------------------|---------------------------------|
|---------------------------------|---------------------------------|
|-5---7---5-------5---7---5-------|-5---7---5-------5-7-5-----------|
|---7---7---7-5-7---7---7---7-5-7-|---7---7---7-5-7-------7-5---5-7-|
|---------------------------------|---------------------------7-----|

  S S S S S S S S S S S S S S S S   S S S S S S S S S S S S S S S S
|---------------------------------|---------------------------------|
|---------------------------------|---------------------------------|
|---------------------------------|---------------------------------|
|-5---7---5-------5---7---5-------|-5---7---5-------5-7-^-r-5-------|
|---7---7---7-5-7---7---7---7-5-7-|---7---7---7-5-7-----------7-5-7-|
|---------------------------------|---------------------------------|

  S S S S S S S S S S S S S S S S   S S S S S S S S S S S S S S S S
|---------------------------------|---------------------------------|
|---------------------------------|---------------------------------|
|---------------------------------|---------------------------------|
|-5---7---5-------5---7---5-------|-5---7---5-------5-7-5-----------|
|---7---7---7-5-7---7---7---7-5-7-|---7---7---7-5-7-------7-5---5-6-|
|---------------------------------|---------------------------7-----|

  S S S S S S S S S S S S S S S S   S S S S S S S S S S S S S S S S
|---------------------------------|---------------------------------|
|-7---9---7-------7---9---7-------|-7---9---7-------7-9-7-9-7-------|
|---9---9---9-7-9---9---9---9-7-9-|---9---9---9-7-9-----------9-7-9-|
|---------------------------------|---------------------------------|
|---------------------------------|---------------------------------|
|---------------------------------|---------------------------------|

  S S S S S S S S S S S S S S S S   S S S S S S S S S S S S S S S S
|---------------------------------|---------------------------------|
|-7---9---7-------7---9---7-------|-7---9---7-------7-9-7---------7-|
|---9---9---9-7-9---9---9---9-7-9-|---9---9---9-7-9-------9-7-5-7---|
|---------------------------------|---------------------------------|
|---------------------------------|---------------------------------|
|---------------------------------|---------------------------------|

  |-3-|     |-3-|  |-3-|     |-3-|
  S S S  S  S S S  S S S  S  S S S  S  S
|-----------------------------------------|
|-----------------------------------------|
|-----------------------------------------|
|-----------------------------------------|
|-8-7-------7-5--------------8-7----------|
|-----0--0------0--7-6-0--0------0--0--0--|

  |-3-|     |-3-|  |-3-|     |-3-|
  S S S  S  S S S  S S S  S  S S S   S S
|-----------------------------------------|
|-----------------------------------------|
|-----------------------------------------|
|-----------------------------------------|
|-8-7-------7-5--------------8-7----------|
|-----0--0------0--7-6-0--0------0---7-6--|

  |-3-|     |-3-|  |-3-|     |-3-|
  S S S  S  S S S  S S S  S  S S S  S  S
|-----------------------------------------|
|-----------------------------------------|
|-----------------------------------------|
|-----------------------------------------|
|-8-7-------7-5--------------8-7----------|
|-----0--0------0--7-6-0--0------0--0--0--|

  |-3-|     |-3-|  |-3-|    |----6----|    
  S S S  S  S S S  S S S  S S S S S S S S
|-----------------------------------------|
|-----------------------------------------|
|-----------------------------------------|
|-----------------------------------------|
|-8-7-------7-5---------------5-8-7-5-----|
|-----0--0------0--7-6-0--5-6---------6-5-|

  S S S S S S S S S S S S S S S S   S S S S S S S S S S S S S S S S
|---------------------------------|---------------------------------|
|-7---9---7-------7---9---7-------|-7---9---7-------7-9-7---------7-|
|---9---9---9-7-9---9---9---9-7-9-|---9---9---9-7-9-------9-7-5-7---|
|---------------------------------|---------------------------------|
|---------------------------------|---------------------------------|
|---------------------------------|---------------------------------|

   |-3-| |-3-| |--4--|
   S S S S S S S S S S  S S  S S 3x S S S S S S S S S S S S S S S S
||-------------------------------||---------------------------------|
|o-------------------------------o|---------------------------------|
||-------------------------------||---------------------------------|
||-------------------------------||---------------------------------|
|o-------------------------------o|---------------------------------|
||-3-2-0-5-3-0-3-2-0-0--0-0--0-0-||-3-2-0-5-3-0-6-5-0-5-3-0-3-2-0-0-|

   S S S S S S S S S S  S S  S S 3x S S S S S S S S S S S S S S S S
||-------------------------------||---------------------------------|
|o-------------------------------o|---------------------------------|
||-------------------------------||---------------------------------|
||-------------------------------||---------------------------------|
|o-------------------------------o|---------------------------------|
||-3-2-0-5-3-0-3-2-0-0--0-0--0-0-||-3-2-0-5-3-0-6-5-0-5-3-0-3-2-0-0-|

   S S S S  S S S S S S S   S S S S  S S S S   S S 3x
||------------------------|------------------------||
|o------------------------|------------------------o|
||------------------------|------------------------||
||------------------------|------------------------||
|o-2-1------------------1-|-2-1------------------1-o|
||-----3-2--0-2-0---2-3---|-----3-2--0-2-3-2---3---||

  S S S S  S S S S S S S   S S S S  S S S S   S S S
|------------------------|--------------------------|
|------------------------|--------------------------|
|------------------------|--------------------------|
|------------------------|----------------------4-0-|
|-2-1------------------1-|-2-1----------------2-----|
|-----3-2--0-2-0---2-3---|-----3-2--0-2-3-2---------|

   S S S S S S S S S S S S S S S S   S S S S S S S S S S S S S S S S
||---------------------------------|---------------------------------||
|o---------------------------------|---------------------------------o|
||---------------------------------|---------------------------------||
||-2-4-4-2-4-4-2-4-4-2-4-2-4-5-4-2-|-2-4-4-2-4-4-2-4-4-2-4-2---------||
|o---------------------------------|-------------------------5-4-2-1-o|
||---------------------------------|---------------------------------||

   S S S S  S S S S S S S S S   S S S S  S S S S S S S S S S S
||----------------------------|--------------------------------||
|o----------------------------|--------------------------------o|
||----------------------------|--------------------------------||
||------------------------0-2-|-4-4-2-4--2-4-2-4-5-4-2---------||
|o-2-1--------------1-2-4-----|------------------------5-4-2-1-o|
||-----3-2--0-2-3-5-----------|--------------------------------||

   S S S S S S S S S S  S S  S S 3x S S S S S S S S S S S S S S S S
||-------------------------------||---------------------------------|
|o-------------------------------o|---------------------------------|
||-------------------------------||---------------------------------|
||-------------------------------||---------------------------------|
|o-------------------------------o|---------------------------------|
||-3-2-0-5-3-0-3-2-0-0--0-0--0-0-||-3-2-0-5-3-0-6-5-0-5-3-0-3-2-0-0-|


   S S S S  S S S S S S S S S   S S S S  S S S S S S S S S S S
||----------------------------|--------------------------------||
|o----------------------------|--------------------------------o|
||----------------------------|--------------------------------||
||------------------------0-2-|-4-4-2-4--2-4-2-4-5-4-2---------||
|o-2-1--------------1-2-4-----|------------------------5-4-2-1-o|
||-----3-2--0-2-3-5-----------|--------------------------------||

   S S S S  S S S S S  S  S S 3x S S S S S S S S S  S S S S S S S S S
||----------------------------||--------------------------------------|
|o----------------------------o|--------------------------------------|
||----------------------------||--------------------------------------|
||-7-6------------------------||-7-6----------------------------------|
|o-----8-7----6-5-------------o|-----8-7---6-5--------2-1-------1-2-4-|
||----------0-----7-6--0--0-0-||---------0-----7-6--0-----2-3-2-------|

  S S S S S S S S S S S S S S S S   S S S S S S S S S S S S S S S S
|---------------------------------|---------------------------------|
|---------------------------------|---------------------------------|
|---------------------------------|---------------------------------|
|-2-4-4-2-4-4-2-4-4-2-4-2-4-5-4-2-|-2-4-4-2-4-4-2-4-4-2-4-2---------|
|---------------------------------|-------------------------5-4-2-1-|
|---------------------------------|---------------------------------|

   S S S S S S S S S S  S S  S S 2x
||-------------------------------||
|o-------------------------------o|
||-------------------------------||
||-------------------------------||
|o-------------------------------o|
||-3-2-0-5-3-0-3-2-0-0--0-0--0-0-||

  S S S S S S S S S S S S S S S S   S S S S S S S S S S S S S S S S
|---------------------------------|---------------------------------|
|---------------------------------|---------------------------------|
|---------------------------------|---------------------------------|
|-2-4-4-2-4-4-2-4-4-2-4-2-4-5-4-2-|-2-4-4-2-4-4-2-4-4-2-4-2---------|
|---------------------------------|-------------------------5-4-2-1-|
|---------------------------------|---------------------------------|

  S S S S S S S S S S  S S  S S   S S S S S S S S S S S S S S S S
|-------------------------------|---------------------------------|
|-------------------------------|---------------------------------|
|-------------------------------|---------------------------------|
|-------------------------------|---------------------------------|
|-------------------------------|---------------------------------|
|-3-2-0-5-3-0-3-2-0-0--0-0--0-0-|-3-2-0-5-3-0-6-5-0-5-3-0-3-2-0-0-|

  S S S S S S S S S S S S S S S S   S S S S S S S S S S S S S S S S
|---------------------------------|---------------------------------|
|---------------------------------|---------------------------------|
|---------------------------------|---------------------------------|
|-2-4-4-2-4-4-2-4-4-2-4-2-4-5-4-2-|-2-4-4-2-4-4-2-4-4-2-4-2---------|
|---------------------------------|-------------------------5-4-2-1-|
|---------------------------------|---------------------------------|

  S S S S S S S S S S S S S S S S   (guitar/keyboard solo to Chorus)
|---------------------------------|--------|
|-4-6-6-4-6-6-4-6-6-4-6-4-6-7-6-4-|--------|
|---------------------------------|--------|
|---------------------------------|--------|
|---------------------------------|--------|
|---------------------------------|--------|
 
(12:50) Hell Yeah! you made it!
4/4
   E   E   E  E  S S S   E   E   E  S S  E  E
||---------------------|----------------------|
|o---------------------|----------------------|
||---------------------|----------------------|
||----------------/7-5-|----------------------|
|o-7---5---3--4--4-----|-7---5---3--3-4-----4-|
||---------------------|-----------------3----|

  E   E   E  E  S S S   E   E   E    S S S S  4x
|---------------------|-----------------------||------|
|---------------------|-----------------------o|------|
|---------------------|-----------------------||------|
|----------------/7-5-|-----------------------||------|
|-7---5---3--4--4-----|-7---5---3----4---4----o|-7--|
|---------------------|----------------3---2^-||------|


Текст, аккорды и табулатура для песни "Glass Prison", исполняет "Dream Theater".
Используемые в песне аккорды можно найти в разделе Как брать аккорды. Аккорды для шестиструнной гитары. Другие песни можно найти на нашем сайте, воспользовавшись алфавитным указателем вверху страницы.


 
Ошибка в тексте? Выделите ошибку и нажмите Ctrl+Enter