Another Hand - Guitar Tab


Author - Guillermo Serrano Malacon


Another Hand (the killing hand)
Live At The Marquee Version

Transcribed by:
Guillermo Serrano Malacon

[email protected]

All right I don't think this tab is a perfect transcription of this song but
this is the way I used to play it. I accept Corrections. So here is my version. 


INTRO


Acoustic Guitar

e ---------0------------------------0----------0--------0-------------0---------0--------0-----
B -------4-----4-----------------4----------4--------4-----4-------4---------4--------4-----4--
G -----4----------------------4----------4--------4-------------4---------4--------4-----------
D --2------------------------------------------------------------------------------------------
A ----------------------------------------------------------------------2--------0-------------
E --------------------0---------------2---------4-------------4--------------------------------



e ------------0---------0--------0-----------------0-----------------
B ----------4---------4--------4---4-------------4---4---------------
G -4------4---------4--------4-------4--------4--------4---4---------
D -------------------------------------------------------------------
A ----0----------2---------4-----------4---6-------------6-----------
E -------------------------------------------------------------------

e ---------0--------------0---------0--------0---------------0---------0--------0-----
B -------4-----4--------4---------4--------4-----4---------4---------4--------4-----4-
G -----4---------4-----4---------4--------4--------4-----4---------4--------4---------
D --2---------------------------------------------------------------------------------
A ----------------------------------------------------------------2--------0----------
E ------------------0----------2---------4-------------4------------------------------



e ----------0---------0--------0------------------0-----------------------------------
B --------4---------4--------4---4--------------4---4---------------------------------
G -4----4---------4--------4-------4----4-----4-------4----4--------------------------
D ------------------------------------------------------------------------------------
A ---0---------2---------4------------4-----6------------6----------------------------
E ------------------------------------------------------------------------------------



e -------0-----------------0----------0----------0---------------0----------0------
B -----4---4-------4-----4----------4----------4---4------4----4----------4--------
G ---4-------4---------4----------4----------4-------4-------4----------4----------
D -2-------------------------------------------------------------------------------
A --------------------------------------------------------------------2---------0--
E -------------0---------------2-----------4------------4--------------------------

e ------0-------------0--------0---------0------------------0----------------------
B ----4---4---------4--------4---------4---4--------------4---4--------------------
G --4-------4-----4--------4---------4-------4----4-----4-------4----4-------------
D ---------------------------------------------------------------------------------
A ------------0----------2---------4------------4-----6------------6---------------
E ---------------------------------------------------------------------------------

Electric Guitar 

e --------------------------------------------------------------------------
B --5--5-----5--5-----7--7----5--5----5--5----7--7-----10---10---10--10------
G --4--4-----4--4-----6--6----4--4----4--4----6--6-----9----9----9---9------
D --2--2-----2--2-----4--4----2--2----2--2----4--4-----7----7----7---7------
A --------------------------------------------------------------------------
E --------------------------------------------------------------------------

e --------------------------------------------------------------------------
B --12--12-----14---14----14-----16--16-------------------------------------
G --11--11-----13---13----13-----15--15-------------------------------------
D ---9---9-----11---11----11-----13--13-------------------------------------
A --------------------------------------------------------------------------
E --------------------------------------------------------------------------

e --------------------------------------------------------------------------
B --5--5---5--5----7--7-----5--5----5--5----7--7----10---10------------------
G --4--4---4--4----6--6-----4--4----4--4----6--6----9----9----9--9-----9----
D --2--2---2--2----4--4-----2--2----2--2----4--4----7----7----------7-----7-
A --------------------------------------------------------------------------
E --------------------------------------------------------------------------

e --------------------------------------------------------------------------
B -----------------------------------------------------5--------------------
G ------------------------------------------------6--6---6----6--8--8--6----
D --7h9--7-----------9--9--9---9--9--9---9--9-----6--------6--6--8--8--6----
A -----------9---7---9--9--9---9--9--9---9--9-----4-----------4--6--6--4----
E -------------------7--7--7---7--7--7---7--7-------------------------------

e ---------------------------------------------------------------5--5--5--5-
B ----5-----------------------5--7--5---------------5------------5--5--5--5-
G --6---6--6--8--8--6---6--8------------8--6--4--8-----8--6--4---6--6--6--6-
D ---------6--8--8--6--------------------------------------------7--7--7--7- 
A ---------4--6--6--4--------------------------------------------7--7--7--7-
E ---------------------------------------------------------------5--5--5--5-


  Solo #1  Guitar

e --------------------------------------------9---9-------------------------
B ------12---------------------------------------------12---10---9--10--12--
G -----------9--11--11--9------9---9--11--9---------------------------------
D -------------------------11-----------------------------------------------
A --------------------------------------------------------------------------
E --12----------------------------------------------------------------------

e ------------------------------------------9--9------------------------------------
B --10h12--12--10--9------9--10--9^---------------12--10--9--10h12------------------
G --------------------11-------------11--9------------------------------------------
D ------------------------------------------------------------------11--11--13--14--
A ----------------------------------------------------------------------------------
E ----------------------------------------------------------------------------------

e ----------------------------16--16--19--16--16--16---16--17--19--21-------
B --12--16--17--16--14--12--------------------------------------------------
G ---------------------------------------------------------------------18---
D --------------------------------------------------------------------------
A --------------------------------------------------------------------------
E --------------------------------------------------------------------------

e --19---16h17--17--16-------14--14--12-------------------------------------
B ---------------------------------------12--------16^---14h16--14----------
G -----------------------14-------------------14--------------------13--13--
D --------------------------------------------------------------------------
A --------------------------------------------------------------------------
E --------------------------------------------------------------------------

e --------------------------------------------------------------------------
B --------------------------------------------------------------------------
G --14--11--11--11h14h9--9~-------17-------------19-------------------------
D --------------------------------------------------17----------------------
A ----------------------------15-----15S17--17---------17-------------------
E --------------------------------------------------------17----------------

Repeat this part 4 times


e --------------------------------------------------------------------------
B --------------------------------------------------------------------------
G ----------12------------10------------12---------------10-----------------
D --12--12-----12---------8------12--12----12----------------10-------------
A --10-------------10-----8------10------------10-10---8--------------------
E --------------------------------------------------------------------------


Текст, аккорды и табулатура для песни "Another Hand", исполняет "Dream Theater".
Используемые в песне аккорды можно найти в разделе Как брать аккорды. Аккорды для шестиструнной гитары. Другие песни можно найти на нашем сайте, воспользовавшись алфавитным указателем вверху страницы.


 
Ошибка в тексте? Выделите ошибку и нажмите Ctrl+Enter