Author/Artist: Dr. Dre
Title: still D.R.E
Album: Chronic 2001
Transcribed by: Justin Adair`
Email: [email protected]

[email protected]------17-----
-----17-------17-------17-------17-------17-------17-------17-------17--------
--17-------17-------17-------17-------17-------17-------17-------17-------16--
------------------------------------------------------------------------------
------------------------------------------------------------------------------
------------------------------------------------------------------------------
 sweep these bi-e-o-c- hes                                                    

----17-------17-------17-------15-------15-------15-------15-------15---------
-17-------17-------17-------15-------15-------15-------15-------15------------
-------16-------16-------16-------16-------16-------16-------16---------------
------------------------------------------------------------------------------
------------------------------------------------------------------------------
------------------------------------------------------------------------------
                  want bass? mail my place.                                   


Текст, аккорды и табулатура для песни "Still Dre", исполняет "Dr Dre".
Используемые в песне аккорды можно найти в разделе Как брать аккорды. Аккорды для шестиструнной гитары. Другие песни можно найти на нашем сайте, воспользовавшись алфавитным указателем вверху страницы.


 
Ошибка в тексте? Выделите ошибку и нажмите Ctrl+Enter