Author/Artist:Dr. Dre 
Title:Forgot About Dre 
Album:Chronic 2001 
Transcribedby: Justin Adair 
Email:[email protected] 

[email protected]------3--5--- 
-------------------------------------|---------3--------------------3--------- 
-------------------------------------|------3---------2--3-------3--------2--- 
--------------------------------8----|---5--------------------1--------------- 
----------------------6----5---------|---------------------------------------- 
-3----3--5--6----5-------------------|---------------------------------------- 
 (bass line)                              guitar part                         

-6---------------------------------------------------------------------------- 
------------------------------------------------------------------------------ 
-3---------------------------------------------------------------------------- 
------------------------------------------------------------------------------ 
------------------------------------------------------------------------------ 
------------------------------------------------------------------------------ 
                    have fun                                                  


Текст, аккорды и табулатура для песни "Forgot About Dre", исполняет "Dr Dre".
Используемые в песне аккорды можно найти в разделе Как брать аккорды. Аккорды для шестиструнной гитары. Другие песни можно найти на нашем сайте, воспользовавшись алфавитным указателем вверху страницы.


 
Ошибка в тексте? Выделите ошибку и нажмите Ctrl+Enter