------------------------------------------
PUNK WON /  Down By Law
------------------------------------------

intro
----------------------------------------------------------
----------------------------------------------------------
----------------------------------------------------------
-0-0-0-3---0-0-0-3---0-0-0-3---0-0-0-3---3-3-3-5--3-3-3-5-
        
             ___________         _____________
          |1                         |2
-------------------------------||-------------------------------
-------------------------------||-------------------------------
-5-5-5-7----5-5-5--7-----||-------------------------------
-------------------------------||-------7---7---7---------------

verse
------------------------------------------------|--------------------------||
-----------5-----------------------------------|-----------5--------------||
-7777--5-7---7---7777----5-------7777---5-7-7---7777------||
-----------------------7---3-5--------------|---------------------7-3-5||
                                                           3x


chorus
--------------|--------------------|---------------|-------|------
--------------|-------5-7-5------|---------------|-5----|-75---
--------------|---5-7-------7-5-|---------------|--------|----75
-3----|-3----|-5-----------------|-1----|-1----|---------|------
  (8x)   (8x)                    (8x)   (8x)   (8x)

--------------------------------------------|------|------
----SEE LINE ABOVE,-------------------------|---
----BUT CHANGE LAST TWO MEASURES-
----TO:-------------------------------------|-0----|-0----
                                                      (8x)   (8x)


bridge-(entire section 2x)-||-lead-|-------|------|--------
------------------------------||-----2|-----2|-----3--|-----5--
------------------------------||-------|-------|--------|--------
-0----|-0----|-1----|-3----||-0-0--|-0-0--|-1-1--|-3-3----
  (8x)   (8x)   (8x)   (8x)

The song ends with just the last 4 measures of the verse
played 4 times through, then ends on low E.


Текст, аккорды и табулатура для песни "Punk Won", исполняет "Down By Law".
Используемые в песне аккорды можно найти в разделе Как брать аккорды. Аккорды для шестиструнной гитары. Другие песни можно найти на нашем сайте, воспользовавшись алфавитным указателем вверху страницы.


 
Ошибка в тексте? Выделите ошибку и нажмите Ctrl+Enter