Tune down Ѕ step (tuning, low to high: Eb, Ab, Db, Gb, Bb, Eb)

Note: I hear some D's (4th string, open) a little here and there (or is it
just my imagination?) and I don't know if it's intentional or just mistakes,
there is no pattern to my ears. Maybe you can help me out if you think that
I am wrong.

     ----------------------------------------------------------------------

Intro: 

                                    sl.                                    sl.
|--15-------14-------12-------12--------9------12------11------9------9---------
|-----13-------13-------13-------13-------10------10------10-----10-----10------
|--------12-------12-------12-------12------9-------9-------9------9------97--
|-------------------------------------------------------------------------------
|-------------------------------------------------------------------------------
|-------------------------------------------------------------------------------

                                sl.                             sl.
|--7-----10-----9-----7-----7-------5-----8-----7-----5-----5-------|
|----8------8-----8-----8-----8-------6-----6-----6-----6-----6-----|
|------7------7-----7-----7-----75-----5-----5-----5-----5-----5--|
|-------------------------------------------------------------------|
|-------------------------------------------------------------------|
|-------------------------------------------------------------------|

Main Part:

|--2-2-----2-----2-----2-----2---5-----4-----5-----4-----2---2---|
|--3---3-----3-----3-----3---------3-----3-----3-----3-----3-3---|
|--2-----2-----2-----2-----2---2-----2-----2-----2-----2-----2---|
|-(0)-------------------------------------------------------(0)--|
|----------------------------------------------------------------|
|----------------------------------------------------------------|

   sl.                                                          sl.
|----2/5--5-----5-----5-----5-----5---8-----7-----8-----7-----5---5---
|----3/6----6-----6-----6-----6---------6-----6-----6-----6-----6-6--
|-*--2/5------5-----5-----5-----5---5-----5-----5-----5-----5-----5--
|-*-(0)---------------------------------------------------------------
|---------------------------------------------------------------------
|---------------------------------------------------------------------

 --2-2-----2-----2-----2-----2---5-----4-----5-----4-----2---2----|
 --3---3-----3-----3-----3---------3-----3-----3-----3-----3-3----|
 --2-----2-----2-----2-----2---2-----2-----2-----2-----2-----2--*-|
 -(0)-------------------------------------------------------(0)-*-|
 -----------------------------------------------------------------|
 -----------------------------------------------------------------|

|--2/5--5-----5-----5-----5-----5---8-----7-----8-----7-----5------
|--3/6----6-----6-----6-----6---------6-----6-----6-----6-----6----
|--2/5------5-----5-----5-----5---5-----5-----5-----5-----5-----5--
|-(0)--------------------------------------------------------------
|------------------------------------------------------------------
|------------------------------------------------------------------

 --8-----7-----8-----7-----5------8-----7-----8-----7-----5---5--
 ----6-----6-----6-----6-----6------6-----6-----6-----6-----6-6--
 ------5-----5-----5-----5-----5------5-----5-----5-----5-----5--
 ----------------------------------------------------------------
 ----------------------------------------------------------------
 ----------------------------------------------------------------

|--2--|
|--3--|
|--2--|
|--0--|
|-----|
|-----|


Текст, аккорды и табулатура для песни "Pray For The Locust", исполняет "Down".
Используемые в песне аккорды можно найти в разделе Как брать аккорды. Аккорды для шестиструнной гитары. Другие песни можно найти на нашем сайте, воспользовавшись алфавитным указателем вверху страницы.


 
Ошибка в тексте? Выделите ошибку и нажмите Ctrl+Enter