lysergik funeral procession
                 by :  down
transcribed by rooster1776
pepper seems to favor droppped-D style tunings
so i'm pretty sure this is how it looks.  i tabbed this with bucket o tab so i hope this looks OK.


    intro....
D#----------------------------------------------------------------------|
A#----------------------------------------------------------------------|
F#----------------------------------------------------------------------|
C#----------------------------------------------------------------------|
G#--5--8----------------------------------------------5--8--------------|
C#--------10--7--------7--7--7--7^--5-----5-----3-----------7^-----7----|

D#----------------------------|-----------------------------------------|
A#----------------------------|-----------------------------------------|
F#----------------------------|-----------------------------------------|
C#----------------------------|-----------------------------------------|
G#----------------------------|-----------------------------------------|
C#--7--7--7^-----5-----5^--3--|-----------------------------------------|


    verse
D#----------------------------------------------------------------------|
A#----------------------------------------------------------------------|
F#----------------------------------------------------------------------|
C#------------3------------------3p2-----------------------3------------|
G#---------------5--------------------3/5------------------------5------|
C#--0h3h5-----------------0h3h5------------------0h3h5------------------|

D#----------------------------------------------------------------------|
A#----------------------------------------------------------------------|
F#----------------------------------------------------------------------|
C#--------5^--5^---------------------3------------------3p2-------------|
G#----------------3---------------------5--------------------3/5--------|
C#-------------------------0h3h5-----------------0h3h5------------------|

D#------------------------------------------------|---------------------|
A#------------------------------------------------|---------------------|
F#------------------------------------------------|---------------------|
C#---------------3--------------------------------|---------------------|
G#---------------------5--------------3p0h3/5-----|---------------------|
C#-----0h3h5--------------------0--0--------------|---------------------|


    chorus
D#----------------------------------------------------------------------|
A#----------------------------------------------------------------------|
F#----------------------------------------------------------------------|
C#--7--7--7--7--7--7--7-----7-----7-----5--5--5--5--5--5--3-----3-------|
G#--7--7--7--7--7--7--7-----7-----7-----5--5--5--5--5--5--3-----3-------|
C#--7--7--7--7--7--7--7-----7-----7-----5--5--5--5--5--5--3-----3-------|

D#-----------------------------------------------|----------------------|
A#-----------------------------------------------|----------------------|
F#-----------------------------------------------|----------------------|
C#--0--------------------------------------------|----------------------|
G#--0-----3-----5--------------------------------|----------------------|
C#--0-----------------6-----5-----------5-----3--|----------------------|


    outro
D#-----------------------------------------------|----------------------|
A#-----------------------------------------------|----------------------|
F#-----------------------------------------------|----------------------|
C#--0--0--7--------------------5--5-----5-----5--|----------------------|
G#--0--0--5-----0--0--8--8-----5--5-----5-----5--|----------------------|
C#--0--0--0-----0--0--8--8-----5--5-----5-----5--|----------------------|

D#----------------------------------------------------------------------|
A#----------------------------------------------------------------------|
F#----------------------------------------------------------------------|
C#-----3--3--3--3--3--3--3--3--3--3--3--3--2--2--2--2--2--2--2--2--2----|
G#-----1--1--1--1--1--1--1--1--1--1--1--1--3--3--3--3--3--3--3--3--3----|
C#----------------------------------------------------------------------|

D#-----------|----------------------------------------------------------|
A#-----------|----------------------------------------------------------|
F#-----------|----------------------------------------------------------|
C#--2--2--2--|----------------------------------------------------------|
G#--3--3--3--|----------------------------------------------------------|
C#-----------|----------------------------------------------------------|

COMMENTS:
 ? [2002-04-16] rooster1776
'upon further review' the beginning of the chorus should look like this
Eb----------------------------------------------------------------------|
Bb----------------------------------------------------------------------|
Gb----------------------------------------------------------------------|
Db--7--7--7--7--7--7--6-----6-----6-----5--5--5--5--5--5--3-----3-------|
Ab--7--7--7--7--7--7--6-----6-----6-----5--5--5--5--5--5--3-----3-------|
Db--7--7--7--7--7--7--6-----6-----6-----5--5--5--5--5--5--3-----3-------|

Eb----------------------------------------------------------------------|
Bb----------------------------------------------------------------------|
Gb----------------------------------------------------------------------|
Db--0-------------------------------------------------------------------|
Ab--0-------------------------------------------------------------------|
Db--0-------------------------------------------------------------------|


People need to start tabbing out more down, cause THEY ROCK!!!!!

Hey I think the intro goes like this:
11 14 11 9 6~ 666 4 2
11 14 11 9 6~ 666 4 2
11 14 11 9 6~ 666 6h7p6 4 4h5p4 2


Текст, аккорды и табулатура для песни "Lysergik Funeral Procession", исполняет "Down".
Используемые в песне аккорды можно найти в разделе Как брать аккорды. Аккорды для шестиструнной гитары. Другие песни можно найти на нашем сайте, воспользовавшись алфавитным указателем вверху страницы.


 
Ошибка в тексте? Выделите ошибку и нажмите Ctrl+Enter