-------------------------------------------------------------------------------
			     Caught By The River - Doves
-------------------------------------------------------------------------------

Tabbed by:Chris j. Catterall
I won't get this exactly, lot's of layers...but this is how i play it

I just put chords down, get the rhythm from the song...sorry...

e|--------------------------------------------------5------------------------|
B|3--3-3-3--3-3-3--3-3-------------0-0---0-0-0-0----3------------------------|
G|4--4-4-4--4-4-5--5-5-------------4-4---2-2-2-0----4------------------------|
D|5--5-5-5--5-5-5--5-5-------------5-5--------------5------------------------|
A|---------------------------------------------------------------------------|
E|---------------------------------------------------------------------------|
                                                       this chord swells a bit 

e|5--3-------------3------------------5--------------------------------------|
B|3--1-------------1------------------3--------------------------------------|
G|4--2------0-0-0--0------------------4--------------------------------------|
D|5--3------3-2-0--2------------------5--------------------------------------|
A|-----------------3---------------------------------------------------------|
E|---------------------------------------------------------------------------|

e|--------------------------1-0----------------------------------------------|
B|-3--------------------1---1-1-3--------------------1---1-1-----3-3-3-------|
G|-4--------------------2---2-2-2--------------------0---0-0-----4-5-4-------|
D|-5--------------------3---3-3-3--------------------2---0-2-----5-5-5-------|
A|---------------------------------------------------3---3-3-----------------|
E|---------------------------------------------------------------------------|
  Son, what have you done?      You're caught by the river,   You're coming...

e|-5-------------------------------------------------------------------------|
B|-3----------------1-1-1----------------------1--------------------3--------|
G|-4----------------2-0-2----------------------0--------------------4--------|
D|-5----------------3-3-3----------------------2--------------------5--------|
A|---------------------------------------------3-----------------------------|
E|---------------------------------------------------------------------------|
  Life, can't be so easy, but you can't just leave it, when you're not in ...

e|---------------------------------------------------------------------------|
B|-3------------------------------1--------------1-----3---------------------|
G|-4------------------------------2--------------0-----4-----540540540540----|
D|-5------------------------------3--------------2-----5---------------------|
A|-----------------------------------------------3---------------------------|
E|---------------------------------------------------------------------------|
  Would you give it all away... 

(same chords for verse 2)

e|----------------------------------5--3-------------------------------------|
B|-3---------1--------1----------3--3--3--------1----------1-----------------|
G|-4---------2--------0----------4--4--4--------2----------0--540540540540---|
D|-5---------3--------2----------5--5--5--------3----------2-----------------|
A|--------------------3------------------------------------3-----------------|
E|---------------------------------------------------------------------------|
chorus 2

e|---------------------------------------------------------------------------|
B|-----8---0--0----8---0--0--------------------------------------------------|
G|---7--7----7---7--7----7----5-45-45-45--7/9-7/9-7/9-9-7--------------------|
D|--------------------------------------------------------10-9----10---9-----|
A|---------------------------------------------------------------------------|
E|---------------------------------------------------------------------------|
this is the best i could do here

e|---------------------------------------------------------------------------|
B|---------------------------------------------------------------------------|
G|---------------------------------------------------------------------------|
D|-----5/7-5--5/7-5--5-7-9-10------------------------------------------------|
A|---------------------------------------------------------------------------|
E|---------------------------------------------------------------------------|
same, again, i guess another guitar plays this

not much new from then on

e|---------------------------------------------------------------------------|
B|---------------------------------------------------------------------------|
G|------5--7-----------------------------------------------------------------|
D|------------5--7-----------------------------------------------------------|
A|-------------------5--7----------------------------------------------------|
E|---------------------------------------------------------------------------|
outro


 /  slide up
If anyone has improvements/comments: [email protected]
[email protected]==============


Текст, аккорды и табулатура для песни "Caught By The River", исполняет "Doves".
Используемые в песне аккорды можно найти в разделе Как брать аккорды. Аккорды для шестиструнной гитары. Другие песни можно найти на нашем сайте, воспользовавшись алфавитным указателем вверху страницы.


 
Ошибка в тексте? Выделите ошибку и нажмите Ctrl+Enter