name: Mason Schneider

artist: Dope

SongTitle: Everything Sucks

Tabs: Dope
Everything Sucks
From the album Felons and Revolutionaries
Tab by [email protected]
If you have any questions Feel free to e-mail me.

Dropped D tuning (D,A,D,G,b,e)


Intro consists of  synthesizer sound
then guitar  comes in with this:

Intro, Bridge (With metal Distortion):
e:-------------------------------
b:-------------------------------
g:-------------------------------
d:-xx-x-2-xx-x-3-xx-6------------
a:-xx-x-2-xx-x-3-xx-6------------
d:-xx-x-2-xx-x-3-xx-6------------

Verse (With Metal Distortion):
e:-----------------------
b:-----------------------
g:-----------------------
d:-xxxx-3-0-xxxx-x-xx----
a:-xxxx-3-0-xxxx-x-xx----
d:-xxxx-3-0-xxxx-x-xx----

Variation to Verse Riff (With Metal Distortion):
e:----------------------------
b:----------------------------
g:----------------------------
d:-xxxx-6-0--5-0--3-0-xxx-x---
a:-xxxx-6-0--5-0--3-0-xxx-x---
d:-xxxx-6-0--5-0--3-0-xxx-x---        then go back to regular Verse

Chorus (With Metal Distortion):
e:----------------------
b:----------------------
g:----------------------
d:-8--8-4-4--6--6-2-1---
a:-8--8-4-4--6--6-2-1---
d:-8--8-4-4--6--6-2-1---      

After 2nd Chorus go back to Intro Riff a Few times
Then Go to Verse Riff +Verse Variation to end 


Текст, аккорды и табулатура для песни "Everything Sucks", исполняет "Dope".
Используемые в песне аккорды можно найти в разделе Как брать аккорды. Аккорды для шестиструнной гитары. Другие песни можно найти на нашем сайте, воспользовавшись алфавитным указателем вверху страницы.


 
Ошибка в тексте? Выделите ошибку и нажмите Ctrl+Enter