Strange Days - The Doors

bass enters at about 0:07 seconds

      intro                            verse 1
G|---|--------------------------------|--------------------------------------------------
D|---|--------------------------------|----------7---------------7---------------7-------
A|---|--7-5--5--7-5--5--7-5--5--7-5--5|--7-5--5----7--7--7-5--5----7--7--7-5--5----7--7--
E|92|0--7--7-0--7--7-0--7--7-0--7--7-|0--7--7-5--7--7-0--7--7-5--7--7-0--7--7-5--7--7-0-

------------------------------------------------------------------------------------
------------------------5-------5-5-----5-------5-------5-------5---------5-------5-
7-5-----5---5---5-5-5----5--53--5--35----5--53--53-53----5--53--53-53---5---5---5--
-7----2-2-2-2-2-2-2-2-3--5--5---------3--5--5---------3--5--5---------3-7---7-3-7---


------------------------------------------------|
------------------------------------------------|
-5/10--10-10----------------/8--8-7-77---------|
7------------7-7-7-7-6-6-6-6-------------9-00-|

  instrumental chorus 1
G|-----------------------------------------------------------------------|
D|-----------------------------------------------------------------------|
A|/10-10-------/8-8-910-10--------/8-8-910-10-------/8-8-87-77--------|
E|-------7-7-6-6------------7-7-6-6-------------7-7-6-6-----------9-00-|

  verse 2
G|---------------------------------------------------------------------------------------------
D|-------------7---------------7---------------7-------------------------------5-------5-------
A|-57--57-75----7--7--7-5--5----7--7--7-5--5----7--7--7-5-----5---5------5-----5--53--53-5---
E|7---7------5--7--7-0--7--7-5--7--7-0--7--7-5--7--7-0--7----2-2-2-2-2-2-2--23--5--5---------3-

-------------------------------------------------------------------------------------------|
--------5-5-----5-------5-5--5--5-------5--------------------------------------------------|
-35--53--5--35----5--53--5--5-----5--5----5--/10--10-10----------------/8--8-7-77---------|
3---5---------3--5--5---------3--5--5-3--5-7------------7-7-7-7-6-6-6-6-------------9-00-|

  instrumental chorus 2  end
        x2               
G|--------------------|--------------------------------|
D|--910-----------789|--910-----------788------------|
A|10------910-5679---|10------910-5679---7-77--------|
E|------10----7-------|------10----7------------9-00-|

  verse 3
G|---------------------------------------------------------------------------------------------
D|------------7---------------7---------------7--------------------------5-----5-------5-5-----
A|-57--575------7--7--7-5--5----7--7--7-5--5----7--7--7-5--5---5---5---5-5------5--53--5--35--
E|7---7---765--7--7-0--7--7-5--7--7-0--7--7-5--7--7-0--7--7--2-2-2-2-2-2---223--5--5---------3-

--------------------------------------------------------------------------------------------|
5-------5--------5-------5-5--5--5-------5--------------------------------------------------|
--5--53--53-53-----5--53--5--5-----5--5---5-5-/10--10-10/12-------------------/8-8-8-7----|
-5--5---------33--5--5---------3--5--5-3---7----------------7-7-7-7/126-6-6-6----------0---|

tabbed by Achilles 


Текст, аккорды и табулатура для песни "Strange Days", исполняет "Doors".
Используемые в песне аккорды можно найти в разделе Как брать аккорды. Аккорды для шестиструнной гитары. Другие песни можно найти на нашем сайте, воспользовавшись алфавитным указателем вверху страницы.


Слушать онлайн Strange Days


The DoorsStrange Days на Яндекс.Музыке


 
Ошибка в тексте? Выделите ошибку и нажмите Ctrl+Enter