MY EYES HAVE SEEN YOU
By the Doors (from Strange Days 1967)
Tabbed by Nostedamus

Used Tab Symbols
#####################
 h  = Hammer On
  b  = Bend Up
 hb  = Bend Halfway
 /  = Slide Up
 x  = Muted Note
 br = bend and release
#####################


Bass
    MI
G|-----------------|------------------------------------|
D|-2-2-0-2---0---2-|-2-2-0-2---0---2--------------------|
A|---------2-------|---------2--------------------------|
E|-------------0---|-------------0----------------------|

G|-----------------|------------------------------------|
D|-2-2-0-2---0---2-|-2-2-0-2---0---2--------------------|
A|---------2-------|---------2--------------------------|
E|-------------0---|-------------0----------------------|

Guitar
  MI
e|-0-----------------------------|-0-----------------------------|
B|---4b5b4b5b4b5-----------------|---4b5b4b5b4b5-----------------|
G|-------------------2h3h2h0-----|------------------2h3h2h0------|
D|---------------------------2-2-|--------------------------2-2--|
A|-------------------------------|-------------------------------|
E|-------------------------------|-------------------------------|
                                                         
e|-0-----------------------------|-0-----------------------------|
B|---4b5b4b5b4b5-----------------|---4b5b4b5b4b5-----------------|
G|-------------------2h3h2h0-----|------------------2h3h2h0------|
D|---------------------------2-2-|--------------------------2-2--|
A|-------------------------------|-------------------------------|
E|-------------------------------|-------------------------------|
 EYES HAVE SEEN YOU            MY EYES HAVE SEEN YOU            MY
  
   MI                     RE               SOL
e|--0-----0------------------2-----------------3-----------------|
B|----4b5---4h5-------------3-3---------------------3------------|
G|-------------------------2---2-------------4-------------------|
D|------------------------0-----0--------4/5----4/5--------------|
A|---------------------------------------------------------------|
E|---------------------------------------------------------------|
  EYES HAVE SEEN YOU    STANDINYOURDOOR  MEET INSIDE   
  MI (w/dist) 
e|---------------------------------------------------------------|
B|---------------------------------------------------------------|
G|---------------------------------------------------------------|
D|---------0------------------0------------------0---------------|
A|-----0-2---2-0----------0-2---2------------0-2------2/-x-------|
E|-0-3-----------3----0-3---------3------0-3---------------------|
  SHOW ME SOME MORE   SHOM ME SOME MORE  SHOW ME SOME MORE

e|-0-----------------------------|-0-----------------------------|
B|---4b5b4b5b4b5-----------------|---4b5b4b5b4b5-----------------|
G|-------------------2h3h2h0-----|------------------2h3h2h0------|
D|---------------------------2-2-|--------------------------2-2--|
A|-------------------------------|-------------------------------|
E|-------------------------------|-------------------------------|
 EYES HAVE SEEN YOU            MY EYES HAVE SEEN YOU            MY

  MI                          RE           SOL
e|--0-----0----------------------2-------------3-----------------|
B|----4b5---4h5-----------------3-3-----------------3------------|
G|-----------------------------2---2---------4-------------------|
D|----------------------------0-----0----4/5----4/5--------------|
A|---------------------------------------------------------------|
E|---------------------------------------------------------------|
  EYES H SEEN Y             TURN AND STARE FIXYOUR HAIR






 MI (w/dist) 
e|---------------------------------------------------------------|
B|---------------------------------------------------------------|
G|---------------------------------------------------------------|
D|---------0------------------0------------------0---------------|
A|-----0-2---2-0----------0-2---2------------0-2------2----------|
E|-0-3-----------3----0-3---------3------0-3------------3--------|
  MOVE UP STAIRS      MOVE UP STAIRS     MOVE UP STAIRS


Guitar solo
  MI
e|--------------------|--------------------|--------------------|-----------------------|
B|-----3-5-3-5br7h3---|-----3-5-3-5br7h3---|-----3-5-3-5br7h3---|-----3-5-3-5br7h3------|
G|-2h4--------------4-|-2h4--------------4-|-2h4--------------4-|-2h4--------------4----|
D|--------------------|--------------------|--------------------|-----------------------|
A|--------------------|--------------------|--------------------|-----------------------|
E|--------------------|--------------------|--------------------|-----------------------|

e|----------------15--|-12------------------------|-------------------------------------|
B|-5/12-12br15-12-----|---15br17-12----------15-12|-------------------------------------|
G|--------------------|------------15br17-12------|------12-14-12-14br16h12-------------|
D|--------------------|---------------------------|-12h14------------------14-----------|
A|--------------------|---------------------------|-------------------------------------|
E|--------------------|---------------------------|-------------------------------------|

e|---------------------------|---------------------------|------------------------------|
B|---------------------------|---------------------------|------------------------------|
G|------12-14-12-14br16h12---|-------12-14-12-14br16h12--|------12-14-14-14br16h12------|
D|-12h14------------------14-|-12h14-------------------14|-12h14------------------14/-x-|
A|---------------------------|---------------------------|------------------------------|
E|---------------------------|---------------------------|------------------------------|

e|-0-----------------------------|-0-----------------------------|
B|---4b5b4b5b4b5-----------------|---4b5b4b5b4b5-----------------|
G|-------------------2h3h2h0-----|------------------2h3h2h0------|
D|---------------------------2-2-|--------------------------2-2--|
A|-------------------------------|-------------------------------|
E|-------------------------------|-------------------------------|
 EYES HAVE SEEN YOU            MY EYES HAVE SEEN YOU            MY
  
   MI                     RE                  SOL
e|--0-----0------------------2--------------------3-------------------------|
B|----4b5---4h5-------------3-3------------------------3--------------------|
G|-------------------------2---2----------------4---------------------------|
D|------------------------0-----0-----------4/5----4/5----------------------|
A|--------------------------------------------------------------------------|
E|--------------------------------------------------------------------------|
 EYES H SEEN Y        FREE FROM DISGUISE  GAZING ON A CITY UNDER

e|----------------------------------------------------------------|
B|----------------------------------------------------------------|
G|----------------------------------------------------------------|
D|---------0------------------0------------------0----------------|
A|-----0-2---2-0----------0-2---2------------0-2------2-----------|
E|-0-3-----------3----0-3---------3------0-3------------3---------|
  TELEVISION SKY      TELEVISION SKY     TELEVISION SKY

 MI
e|--------------------|--------------------|--------------------|--------------------|
B|-----3-5-3-5br7h3---|-----3-5-3-5br7h3---|-----3-5-3-5br7h3---|-----3-5-3-5br7h3---|
G|-2h4--------------4-|-2h4--------------4-|-2h4--------------4-|-2h4--------------4-|
D|--------------------|--------------------|--------------------|--------------------|
A|--------------------|--------------------|--------------------|--------------------|
E|--------------------|--------------------|--------------------|--------------------|

MI
e|--------------------|--------------------|--------------------|--------------------|
B|-----3-5-3-5br7h3---|-----3-5-3-5br7h3---|-----3-5-3-5br7h3---|-----3-5-3-5br7h3---|
G|-2h4--------------4-|-2h4--------------4-|-2h4--------------4-|-2h4--------------4-|
D|--------------------|--------------------|--------------------|--------------------|
A|--------------------|--------------------|--------------------|--------------------|
E|--------------------|--------------------|--------------------|--------------------|
  MY EYES HAVE SEEN Y                       MY EYES H SEEN YOU  









 MI                       RE                SOL
e|---------------------------2--------------------3-------------------------|
B|--------------------------3-3------------------------3--------------------|
G|-------------------------2---2----------------4---------------------------|
D|-2-------0h2------------0-----0-----------4/5----4/5----------------------|
A|-2----0h2-----------------------------------------------------------------|
E|-0-0h3--------------------------------------------------------------------|
MY EYES H SEEN Y LET THEM PHOTOGRAPH Y SOUL  MOEMORIZE Y ALLEYS ON 

 MI
e|--------------------|--------------------|--------------------|--------------------|
B|-----3-5-3-5br7h3---|-----3-5-3-5br7h3---|-----3-5-3-5br7h3---|-----3-5-3-5br7h3---|
G|-2h4--------------4-|-2h4--------------4-|-2h4--------------4-|-2h4--------------4-|
D|--------------------|--------------------|--------------------|--------------------|
A|--------------------|--------------------|--------------------|--------------------|
E|--------------------|--------------------|--------------------|--------------------|
   ENDLESS ROLL                             ENDLESS ROLL         (Repeat al lib)


 
MY EYES HAVE SEEN YOU   I MIEI OCCHI TI HANNO VISTA 

MY EYES HAVE SEEN YOU      I MIEI OCCHI TI HANNO VISTA
STAND IN YOUR DOOR         FERMA SULLA TUA SOGLIA
MEET INSIDE                INCONTRIAMOCI DENTO
SHOW ME SOME MORE          MOSTRAMI DI PIщ

MY EYES HAVE SEEN YOU      I MIEI OCCHI TI HANNO VISTA
TURN AND STARE             GIRARTI E SQUADRARMI
FIX YOUR HAIR              SISTEMARTI I CAPELLI
MOVE UPSTAIRS              ANDIAMO DI SOPRA

MY EYES HAVE SEEN YOU      I MIEI OCCHI TI HANNO VISTA
FREE FROM DISGUISE         SENZA TRAVESTIMENTI
GAZING ON A CITY           IN CONTEMPLAZIONE DI UNA CITTA'
UNDER TELEVISION SKIES     SOTTO CIELI TELEVISIVI
TELEVISION SKIES           CIELI TELEVISIVI

MY EYES HAVE SEEN YOU      I MIEI OCCHI TI HANNO VISTA
LET THEM PHOTOGRAPH        LASCIA CHE FOTOGRAFINO LA
YOUR SOUL                  TUA ANIMA
MEMORIZE YOUR ALLEYS       SU UN ETERNO RULLINO
ENDLESS ROLL               ETERNO RULLINO


Tabbed by Stefano Gamba   
For any question     


Текст, аккорды и табулатура для песни "My Eyes Have Seen You", исполняет "Doors".
Используемые в песне аккорды можно найти в разделе Как брать аккорды. Аккорды для шестиструнной гитары. Другие песни можно найти на нашем сайте, воспользовавшись алфавитным указателем вверху страницы.


Слушать онлайн My Eyes Have Seen You


The DoorsMy Eyes Have Seen You на Яндекс.Музыке


 
Ошибка в тексте? Выделите ошибку и нажмите Ctrl+Enter