Blue Sunday
From The Doors' 1970 album 'Morrison Hotel - Hard Rock Cafe'
Tabbed and Submitted by HeathrowGiant

  F                                        Db
E---------------------------------------------9-----9-------
B-1--------1-------------------------------------9-----9----
G-2------2--------------------------------------------------
D-3----3----------------------------------------------------
A-3---------------------------------------------------------
E-1---------------------------------1/---9------------------
       I found my own true love was...      on a blue sunday

  C                                F
E-8-------------------------8------------------------------
B------8----------------8--------------1--------------------
G---------------9--------------------2----------------------
D------------------10--------------3------------------------
A------------10---------------------------------------------
E-----------------------------------------------------------
                                   She    looked at me and..

          Db                         C                     
E-----------------------9------------8----------------8-----
B------------------9--------9----------------------8--------
G-------------------------------10-----------9--------------
D--------------11----11-------------------------10----------
A-----------------------------------------10----------------
E-1/-------9------------------------------------------------

  Bb         C         Bb          C        Fmaj7
E-6---------------8-----6--------------8----15--------------
B-----6---------------------6-------------------------------
G-------------7/9------------------7/9----------------------
D---------8---------------------8---------------------------
A-----------------------------------------------------------
E-----------------------------------------------------------
  one in the world...   now I have found my girl


E-15---12^15-15^12------12----------------------------------
B-------------------13----13--------------------------------
G----------------------------14-----------------------12----
D---------------------------------------------12-14-15------
A-------------------------------------12-13-15--------------
E--------------------------------13-15----------------------

    Db
E---9--9----11-9-------------------9---------8--------------
B---9---9--------9-------9------9----------9------8---------
G---10---10-------10--10--10--10--------10--------------9---
D---11--------------11------11-----------------10-----------
A---11-------------------------------11-------------10------
E---9--------------------------------------------------8----
 my girl awaits...


E-----------------------------------------------------------
B-----------------------------------------------------------
G-----------------------------------------------------------
D-----------------------------------------------------------
A-----------------------------------------------------------
E-----------------------------------------------------------
 (SEE 'one in the world' for this part)

(Guitar Solo)
E-----------------------------------------------------------
B-13------11--10-8----8----(8)6---6-8-10--8--6--8---------
G-----------------------------------------------------------
D-----------------------------------------------------------
A-----------------------------------------------------------
E-----------------------------------------------------------

E-----------------------------------------------------------
B-2-----4--2--4/6----4--4^2--2-1----0-1-2-1-0-2--/11--------
G-----------------------------------------------------------
D-----------------------------------------------------------
A-----------------------------------------------------------
E-----------------------------------------------------------

E--------------------------------13---12-13-13^12---12------
B-10-11-11^10-------------------------------------13--13----
G-------------10------------------------------------------14
D----------------12-----------------------------------------
A-------------------13-10-----------------------------------
E-------------------------13-10-----------------------------

E-----------------------------------------------------------
B-----------------------------------------------------------
G-----------------------------------------------------------
D----------------12-14-15-----------------------------------
A-------12-13-15--------------------------------------------
E-13-15-----------------------------------------------------

The rest of this song is basiclly the same, so figure it out for yourselves.


Текст, аккорды и табулатура для песни "Blue Sunday", исполняет "Doors".
Используемые в песне аккорды можно найти в разделе Как брать аккорды. Аккорды для шестиструнной гитары. Другие песни можно найти на нашем сайте, воспользовавшись алфавитным указателем вверху страницы.


Слушать онлайн Blue Sunday


The DoorsBlue Sunday на Яндекс.Музыке


 
Ошибка в тексте? Выделите ошибку и нажмите Ctrl+Enter