Dont Look Down - Better Off

e|---------------------------------------------------------------|
B|---------------------------------------------------------------|
G|-6/7-7-7/6--6/7-7-7/6-x2-6-6-6/7/6---4-4-----------------------|
D|-0-0-0-0-0--0-0-0-0-0----7-7-------7-5-5--9--7--5--------------|
A|------------------------------------------9--7--5--------------|
E|------------------------------------------7--5--3--------------|

e|---------------------------------------------------------------|
B|---------------------------------------------------------------|
G|-6/7-7/6-4-----------------------------------------------------|
D|-6/7-7/6-4-7-5-------------------------------------------------|
A|-4/5-5/4-2-7-5-------------------------------------------------|
E|-----------5-3-------------------------------------------------|
Verse
e|---------------------------------------------------------------|
B|---------------------------------------------------------------|
G|-7-7-7-4-4-----------------------------------------------------|
D|-7-7-7-4-4-7-7-5-5---------------------------------------------|
A|-5-5-5-2-2-7-7-5-5---------------------------------------------|
E|-----------5-5-3-3---------------------------------------------|

e|---------------------------------------------------------------|
B|---------------------------------------------------------------|
G|-6/7-7/6-7~~-7~~-----11-9--7-7---------11-9~~-7~~~~------------|
D|-6/7-7/6-7~~-7~~-7-7-x--x--7-7-5-5-7-7-x--x~~-7~~~~------------|
A|-4/5-5/4-5~~-5~~-7-7-9--7--5-5-5-5-7-7-9--7~~-5~~~~------------|
E|-----------------5-5-----------3-3-5-5-------------------------|

Chorus (Palm Mute)
e|---------------------------------------------------------------|
B|---------------------------------------------------------------|
G|-7-7-7-4-4-----------------------------------------------------|
D|-7-7-7-4-4-7-7-5-5---------------------------------------------|
A|-5-5-5-2-2-7-7-5-5---------------------------------------------|
E|-----------5-5-3-3---------------------------------------------|


B|-14-14-14-10-10-10-----X4--------------------------------------|
G|------------------10-------------------------------------------|
D|---------------------------------------------------------------|
A|---------------------------------------------------------------|
E|---------------------------------------------------------------|

e|---------------------------------------------------------------|
B|-------------5---------5---------------------------------------|
G|---5-------5---5-----5--5--------------------------------------|
D|--5--5----5-----5---5----5-------------------------------------|
A|-3-----3-3-------3-3------3------------------------------------|
E|---------------------------------------------------------------|

Chorus
e|---------------------------------------------------------------|
B|---------------------------------------------------------------|
G|-7-7-7-7-4-4---------------------------------------------------|
D|-7-7-7-7-4-4-7-7-5-5-------------------------------------------|
A|-5-5-5-5-2-2-7-7-5-5-------------------------------------------|
E|-------------5-5-3-3-------------------------------------------|

Lyrics From http://dld.lookingat.us/lyrics.htm#13

I'm feeling like I need to go 
Somewhere else tonight 
Cause I am so tired here
And nothing seems alright 
The world it turns
Around on me and
I am spinning 
I'm always far behind 
I'm never in front
I'm never winning

Simply put,
I need a break from 
Everything that I am 
Simply put
I need a rest from
Everything that i can 

I think I'm better off alone
Then standing here
I think I'm better off alone 
Then standing here 

Simply put,
I need a break from 
Everything that i am 
Simply put
I need a rest from
Everything that i can 

I think I'm better off alone
I thing I'm better off alone (Lets go!)


Текст, аккорды и табулатура для песни "Better Off", исполняет "Dont Look Down".
Используемые в песне аккорды можно найти в разделе Как брать аккорды. Аккорды для шестиструнной гитары. Другие песни можно найти на нашем сайте, воспользовавшись алфавитным указателем вверху страницы.


 
Ошибка в тексте? Выделите ошибку и нажмите Ctrl+Enter