The Donnas
Who Invited You?

Tabbed by
Gary McStea

[email protected]

Any tabs I have seen for this song do not include the solo. The solo
is one of my favourites so I sat down and worked it out myself
since no one else has.

Standard Tuning


Intro and Pre-Solo:

e|--------------------------------------|
b|--------------------------------------|
g|--------------------------------------|
d|-5-7-------5-7-------5-7-------5-7----|
a|-5-7-------5-7-------5-7-------5-7----|
e|-3-5-------3-5-------3-5-------3-5----|


Verse:

e|---------------------------------------------------------------------------|
b|---------------------------------------------------------------------------|
g|---------------------------------------------7-7---------------------------|
d|-5-7---7-7-7-7-7-7---7-7-7-7-7-7-7---5---5---7-7---7---7-7-7-7-7-7---------|
a|-5-7---7-7-7-7-7-7---7-7-7-7-7-7-7---5---5---5-5---7---7-7-7-7-7-7---------|
e|-3-5---5-5-5-5-5-5---5-5-5-5-5-5-5---3---3---------5---5-5-5-5-5-5---------|


e|---------------------------------------------------------------------------|
b|---------------------------------------------------------------------------|
g|---------------------------------------------7-7---7-----------------------|
d|-5-7---7-7-7-7-7-7---7-7-7-7-7-7-7---5---5---7-7---7-----------------------|
a|-5-7---7-7-7-7-7-7---7-7-7-7-7-7-7---5---5---5-5---5-----------------------|
e|-3-5---5-5-5-5-5-5---5-5-5-5-5-5-5---3---3---------------------------------|


Chorus:

e|---------------------------------------------------------------------------|
b|---------------------------------------------------------------------------|
g|-7-8---9-----9-9-9---9---7-7---7-------------------------------------------|
d|-7-8---9-----9-9-9---9---7-7---7-----7---7---7---7---7-7---7---7-----------|
a|-5-6---7-----7-7-7---7---5-5---5-----7---7---7---7---7-7---7---7-----------|
e|-------------------------------------5---5---5---5---5-5---5---5-----------|


e|---------------------------------------------------------------------------|
b|---------------------------------------------------------------------------|
g|-7-8---9-----9-9-9---9---7-7---7-------------------------------------------|
d|-7-8---9-----9-9-9---9---7-7---7-----7---7---7---7---7-7---7---7-----------|
a|-5-6---7-----7-7-7---7---5-5---5-----7---7---7---7---7-7---7---7-----------|
e|-------------------------------------5---5---5---5---5-5---5---5-----------|


e|---------------------------------------------------------------------------|
b|---------------------------------------------------------------------------|
g|------------------------------------7-7---7-7-7-7-7-7---7-7-7-7-7-7-7------|
d|-7-7---7-7-7-7-7-7---7-7-7-7-7-7-7--7-7---7-7-7-7-7-7---7-7-7-7-7-7-7------|
a|-7-7---7-7-7-7-7-7---7-7-7-7-7-7-7--5-5---5-5-5-5-5-5---5-5-5-5-5-5-5------|
e|-5-5---5-5-5-5-5-5---5-5-5-5-5-5-5-----------------------------------------|


e|---------------------------------------------------------------------------|
b|---------------------------------------------------------------------------|
g|---------------------------------------------------------------------------|
d|-4-5---5-5-5-5-5-5---4-5---5-5-5-5-5-5---7-7---7-7-7-7-7-7---7-7-7-7-7-7-7-|
a|-4-5---5-5-5-5-5-5---4-5---5-5-5-5-5-5---7-7---7-7-7-7-7-7---7-7-7-7-7-7-7-|
e|-2-3---3-3-3-3-3-3---2-3---3-3-3-3-3-3---5-5---5-5-5-5-5-5---5-5-5-5-5-5-5-|


Solo

e|-----------------------------------|
b|-----5--8--5------5--8--5--8b-8~8~-| (repeat last note loads of times,
g|-7b-----------7b-------------------| constantly bending it to achieve
d|-----------------------------------| a vibrato effect)
a|-----------------------------------|
e|-----------------------------------|


e|---------------------------------------------------------------------------|
b|-13b--10-------13b--10-------10-10-----------------------------------------|
g|----------12b-----------12b----------7b--5-----5--7--5--7b--5--------------|
d|--------------------------------------------7------------------7~----------|
a|---------------------------------------------------------------------------|
e|---------------------------------------------------------------------------|


e|----------------------15------15----15----15~--|
b|---------15~------15b----15b----15b---15b-15~--| (repeat last notes as needed
g|-14--17-------17-------------------------------| making a vibrato effect)
d|-----------------------------------------------|
a|-----------------------------------------------|
e|-----------------------------------------------|


e|---------------------------------------------------------------------------|
b|-15b--------------15b------------------------------------------------------|
g|------17--14--17-------17--14---7b--5-------------------5~-----------------|
d|---------------------------------------7~---------5--7------7--------------|
a|--------------------------------------------5--7---------------------------|
e|---------------------------------------------------------------------------|

At this point the song goes back into the rhythm guitar but I think there may be
some lead guitar in the background played by a second guitar. Below is what I
play. Even if it's not on the cd it sounds cool anyway.

e|---------------------------------------------------------------------------|
b|---------------------------------------------------------------------------|
g|-----------------5--5--------------7--5~-----------------5~----------------|
d|--7--7--7--7--7--------7--7--5--5---------7--------5--7-------7------------|
a|---------------------------------------------5--7--------------------------|
e|---------------------------------------------------------------------------|


e|---------------------------------------------------------------------------|
b|---------------------------------------------------------------------------|
g|-----------------5--5--------------7--5~-----------------5~----------------|
d|--7--7--7--7--7--------7--7--5--5---------7--------5--7------7~~~----------|
a|---------------------------------------------5--7--------------------------|
e|---------------------------------------------------------------------------|


That's it. Just play along with the cd and you will be able to figure out where
all the parts go. The solo is accurate, but any comments are welcome. There is
also some lead guitar during the last chorus. It is just a bunch of long
bends and other sections of the solo repeated so just play around. Enjoy.


Текст, аккорды и табулатура для песни "Who Invited You", исполняет "Donnas".
Используемые в песне аккорды можно найти в разделе Как брать аккорды. Аккорды для шестиструнной гитары. Другие песни можно найти на нашем сайте, воспользовавшись алфавитным указателем вверху страницы.


 
Ошибка в тексте? Выделите ошибку и нажмите Ctrl+Enter