#----------------------------------PLEASE NOTE---------------------------------#
#This file is the author's own work and represents their interpretation of the #
#song. You may only use this file for private study, scholarship, or research. #
#------------------------------------------------------------------------------##

                                   TAKE IT OFF
                            As recorded by The Donnas

This is the entire song except for the solo and short part afterward.

Gtr I (E A D G B E) - 'Untitled'

   4/4
    Gtr I
                         PM|
    E E E E Q E E    E E E E E E Q    E E E E Q E E    +Q.  Q E Q   4x
||-----------------|----------------|-------------3--|-(3)----------||
||o-------------3--|---2-----3-3-2--|-------------3--|-(3)--2-3-2--o||
||--------------2--|---2-----2-2-2--|-------------0--|-(0)--2-2-2---||
||----4-6-6-4---2--|---2-----2-2-2--|---4-6-6-4---0--|-(0)--2-2-2---||
||o---2-2-2-2------|-----0-0--------|---2-2-2-2---2--|-(2)---------o||
||-----------------|----------------|-------------3--|-(3)----------||


    PM  PM|   PM|      PM  PM|       PM--|   PM|   PM|
    E E E E E E E  E   E E E E E E E E   E E E E E E E E   +Q.   Q  E Q
||-------------------|-----------------|---------------3-|-(3)------------||
||o----------------3-|---2-----3-3-2---|---------------3-|-(3)---2--3-2--o||
||-----------------2-|---2-----2-2-2---|---------------0-|-(0)---2--2-2---||
||----4-----4------2-|---2-----2-2-2---|---4-----4-----0-|-(0)---2--2-2---||
||o-2-2-2-2-2-2-2----|-0---0-0-------0-|-2-2-2-2-2-2-2-2-|-(2)-----------o||
||-------------------|-----------------|---------------3-|-(3)------------||
                                         E


  E E E E E E E E   E E E E H
|-----------------|---------------|----|
|-----------------|---------------|----|
|-----------------|---------------|----|
|-4-4-4-4-4-4-4-4-|-4-4-4-4-4-----|----|
|-4-4-4-4-4-4-4-4-|-4-4-4-4-4-----|----|
|-2-2-2-2-2-2-2-2-|-2-2-2-2-2-----|----|


    Q  E E E E E E    +E  E Q E E E E   Q  E E E E E E   +E  E E E +E  E Q
||------------------|-----------------|----------------|--------------------||
||o-----------------|-----------------|----------------|-------------------o||
||--4--4-4-4-----7--|-(7)-------------|----------------|--------------------||
||--4--4-4-4-7-7-7--|-(7)-7-7-7-7-7-7-|-2--2-2-2-2-2-5-|-(5)-5-5-7-(7)-7-7--||
||o-2--2-2-2-7-7-5--|-(5)-7-7-7-7-7-7-|-2--2-2-2-2-2-5-|-(5)-5-5-7-(7)-7-7-o||
||-----------5-5----|-----5-5-5-5-5-5-|-0--0-0-0-0-0-3-|-(3)-3-3-5-(5)-5-5--||


Текст, аккорды и табулатура для песни "Take It Off", исполняет "Donnas".
Используемые в песне аккорды можно найти в разделе Как брать аккорды. Аккорды для шестиструнной гитары. Другие песни можно найти на нашем сайте, воспользовавшись алфавитным указателем вверху страницы.


 
Ошибка в тексте? Выделите ошибку и нажмите Ctrl+Enter