Hit it: The Donnas
Tabbed by Martin Marriott
Email: [email protected]

This is a pretty simple song. Just play it with balls!
Or tits in this case! (I didn?t say tits cos that?s just sexist,
but these chicks are hot!)

Intro, lead guitar lick:

E |-------------------------------------|
B |--10-----------------10--------------|
G |--9b-7---------------9b-7-----7-7/9--|
D |-------9-9--7-7-7-9-------9-9--------|
A |-------------------------------------|
E |-------------------------------------|

Intro Riff 2:

E |----------------------------------|
B |----------------------------------|
G |--9--4-4-2-2-4----9--4-4-2-7-7-9--|	Play riff twice
D |--9--4-4-2-2-4----9--4-4-2-7-7-9--|
A |--7--2-2-0-0-2----7--2-2-0-5-5-7--|
E |----------------------------------|

Verse Riff: play twice

E |---------------------------------------------------------|
B |---------------------------------------------------------|
G |---------9------------7------------5---------------------|
D |---9--9--9-9----7--7--7-7----5--5--5-5--2-2-2-2-2-2-2-2--|
A |---9--9--7-9----7--7--5-7----5--5--3-5--2-2-2-2-2-2-2-2--|
E |-x-7--7----7--x-5--5----5--x-3--3----3--0-0-0-0-0-0-0-0--|

Pre chorus riff:

E |------------------------------|
B |------------------------------|
G |-----------2-2-2-2?-4b-2------|
D |--5-5-5-5--2-2-2-2-------2-2--|
A |--5-5-5-5--0-0-0-0------------|
E |--3-3-3-3---------------------|

Chorus Riff same as intro Riff 2:

Outro Riff:

E |----------------------------------------------|
B |----------------------------------------------|
G |----------------------------------------------|
D |-9-9-9-9--7-7-7-7--5-5-5-5--2-2-2-2------9-9--|
A |-9-9-9-9--7-7-7-7--5-5-5-5--2-2-2-2------9-9--|
E |-7-7-7-7--5-5-5-5--3-3-3-3--0-0-0-0------7-7--|
Pm  . . . .  . . . .  . . . .  . . . .

There?s a bridge somewhere in the middle, play the verse riff but strum it.


Текст, аккорды и табулатура для песни "Hit It", исполняет "Donnas".
Используемые в песне аккорды можно найти в разделе Как брать аккорды. Аккорды для шестиструнной гитары. Другие песни можно найти на нашем сайте, воспользовавшись алфавитным указателем вверху страницы.


 
Ошибка в тексте? Выделите ошибку и нажмите Ctrl+Enter