Are you gonna move it for me? ? The Donnas
Tabbed by Martin Marriott
Email: [email protected]

This is the opening track of the Turn 21 album.
I?m bored to death so I?ve decided to get tabbing.
If anyone has any other tabs off this record or
any amendments to this tab, get em posted.

Where I?ve put Xs over all the strings means strum the whole lot,
while muting them in between chord changes.


Intro Riff:

E |-5-x---5--x-3-------------|
B |-5-x-7-5--x-3---7-7--5-5--|
G |-6-x-7-6--x-4---7-7--5-5--|	Play riff 4 times
D |-7-x-7-7--x-5---7-7--5-5--|
A |-7-x-5-7--x-5-------------|
E |-5-x---5--x-3-------------|

Verse riff:

E |-------------------------------------5-x---5--x-3-----------|
B |-------------------------------------5-x-7-5--x-3--7-7-5-5--|
G |-------------------------------------6-x-7-6--x-0--7-7-5-5--|
D |-7-7-7-7-7-7-7-7--5-5-5-5--2-2-5-7---7-x-7-7--x-0--7-7-5-5--|
A |-7-7-7-7-7-7-7-7--5-5-5-5--2-2-5-7---7-x-5-7--x-2-----------|
E |-5-5-5-5-5-5-5-5--3-3-3-3--0-0-3-5---5-x---5--x-3-----------|
Pm  .   . . . . . . . . . . . . .

Pre chorus Riff:


E |------------------------------------|
B |------------------------------------|
G |-2-2-4-2--2-2-4-2------5--------5-7-|	Part 1
D |-0-0-0-0--0-0-0-0-?5h7---7--5h7-----|
A |------------------------------------|
E |------------------------------------|


E |---------------------0-------3---------|
B |---------------------0-------3---------|
G |-2-2-4-2--2-2-4-2----1-------0---------|	Part 2
D |-0-0-0-0--0-0-0-0-?--2-------0---------|
A |---------------------2-------2---------|
E |------------------0----0-2-3----0-3-5--|

Chorus Riff is the same as the intro riff.
Except on the last repeat end the riff on G..
and then go into the riff below and then verse riff again.

Post chorus/pre verse:

E |----------|
B |----------|
G |----------|
D |--2-2-5-7-|
A |--2-2-5-7-|
E |--0-0-3-5-|
Pm   . . . .


Solo.. just mess about in the A minor pentatonic scale!


Outro Riff:


E |------------------------------------------------------|
B |------------------------------------------------------|
G |------------------------------------------------7-----|
D |--7-7-7-7-7-7-7-7--5-5-5-5-5-5-2-5--7-7-7-7?-7--7--7--|
A |--7-7-7-7-7-7-7-7--5-5-5-5-5-5-2-5--7-7-7-7?-7--5--7--|
E |--5-5-5-5-5-5-5-5--3-3-3-3-3-3-0-3--5-5-5-5--5-----5--|
Pm   . . . . . . . .  . . . . . . . .  . . . .

When playin the outro riff, the guitar on the last on the solo until the bass is playin the G chord..
and the guitar joins the bass at that point.. remember let the A D A at the end of the riff ring out.


Текст, аккорды и табулатура для песни "Are You Gonna Move It For Me", исполняет "Donnas".
Используемые в песне аккорды можно найти в разделе Как брать аккорды. Аккорды для шестиструнной гитары. Другие песни можно найти на нашем сайте, воспользовавшись алфавитным указателем вверху страницы.


 
Ошибка в тексте? Выделите ошибку и нажмите Ctrl+Enter