The Donnas - 40 Boys in 40 Nights
Tabbed by [email protected]

Chorus:
G|--------------|3x
D|-3-1----------|
A|-----11-11553-|
E|--------------|

G|--------------|1x
D|-3-1----------|
A|-----11-11333-|
E|--------------|

Verse:
G|-------------------------------------------------------------------------|
D|-------------------------------------------------------------------------|
A|--------1-1-333331111113333333------1111111---------333333333-333333333--|
E|-1111111-1--------------------111111-------333333333---------333333333---|


found an error? and got the correction?
mail me: [email protected]


[email protected]==========


Текст, аккорды и табулатура для песни "40 Boys In 40 Nights", исполняет "Donnas".
Используемые в песне аккорды можно найти в разделе Как брать аккорды. Аккорды для шестиструнной гитары. Другие песни можно найти на нашем сайте, воспользовавшись алфавитным указателем вверху страницы.


 
Ошибка в тексте? Выделите ошибку и нажмите Ctrl+Enter