Вступление:

   Em                                        Am
1------------------------|----------------------|------------------------|
2------0-----1-----0-----|----------------------|------1-----3-----1-----|
3----0---0-----0-----0---|-----0-----0-----0----|----2---2-----2-----2---|
4---2------2-----2-----2-|---2-----2-----2------|--2-------2-----2-----2-|
5------------------------|-2-----3-----2------0-|------------------------|
6-0----------------------|----------------------|------------------------|
              D7/f#                              G(III)
1----------------------|-2-----3-----2----------|-------3-----5-----3-----|
2--------------------1-|---1-----1-----1------1-|-----3---3-----3-----3---|
3-----2-----2------2---|-----2-----2-----2--2---|---4-------4-----4-----4-|
4---2-----2------0-----|------------------------|-------------------------|
5-0--------------------|------------------------|-------------------------|
6-------3-----2--------|-------------------2----|-3-----------------------|
 H7
1---------2-----3-----2-|
2-------4---4-----4-----|
3-----2-------2-----2---|
4-----------------------|
5---2-------------------|
6-3---------------------|

     Em              Am
   Дожди забренчали сонаты
     H7                Em
   По клавишам мокнущих дней.
     Em                Am
   И  труб водосточных стаккато
     D7/f# D7sus4/f# D7/f#      G  G9 G
   Органных тонов не бедней.
     E              Am
   Я вот уже многие годы
     D7/f# D7sus4/f# D7/f#  G G9 G
   От каждого           ноября
     Em                Am
   Жду этой дождливой погоды.
     H7                  Em
   Все жду я, все жду я, а зря...
 
                 Em/9
      Ну вот, наконец-то
                 Am7 Am6 Am Am6
      Дождливый сентябрь.
                D7/f#
      Ну вот, наконец-то
          D7sus4/f#   D7/f# G  G9 G
      Прохладная           осень...
              Em/9
      И тучи повисли
               Am  Am7 Am6 Am
      Косыми сетями
                 Em/9
      И кончился месяц
           H7       Em
      Под номером "восемь".
 
   Хоть я не наивен, как прежде
   Твержу я дождей: "Подожди".
   Живу я в невнятной надежде,
   А годы идут, как дожди.
   Последнему будет работа:
   Мой голубоглазый палач.
   Мой тысячный дождь для кого-то
   Всего только первый плач.
 
      Припев
 
   А если бы жизни кривая
   Легла на ладонь, словно путь,
   Я смог бы, глаза закрывая,
   В грядущее заглянуть...
   Нет, лучше, пожалуй, не надо -
   Опять не в ладах я с судьбой.
   Известны исходы парадов,
   А чем же закончится бой?
 
      Припев
	
	
	        
Комментарий автора: Em/9: 024000 D7/f#: 2xx212 D7sus4/f#: 2xx213

Текст, аккорды и табулатура для песни "Сентябрь. Дожди.", исполняет "Дольский Александр".
Используемые в песне аккорды можно найти в разделе Как брать аккорды. Аккорды для шестиструнной гитары. Другие песни можно найти на нашем сайте, воспользовавшись алфавитным указателем вверху страницы.


 
Ошибка в тексте? Выделите ошибку и нажмите Ctrl+Enter