Вступление:
 
  Dm7  Dm6   Dm     Dm6      C(VIII)
1-8-----7-----5-----7------|---------------------------------|
2-6-6-----6-----6-------6--|-13------12------10------12------|
3-5---5-----5-----5---5----|-------9-------9-------9-------9-|
4-7------------------------|----10------10------10------10---|
5-5------------------------|-10------10------10------10------|
6--------------------------|---------------------------------|

  H(IX)                       Esus4(VII)
1--8------------------------|--------|
2--------12-----10----12----|-10--8--|
3------8------8-----8-----8-|-7------|
4----9------9-----9-----9---|-9------|
5--9-----9------9-----9-----|-7------|
6---------------------------|--------|

Am             Dm           G         C
От прощанья до прощанья возвращение одно
Dm             Am            E      Am
Частых писем обещанье, позабытое давно.
Мы играем, словно дети, в провожанья вновь и вновь
Разделилось все на свете на любовь и нелюбовь,
Разделилось все на свете на любовь и нелюбовь...
 
(аккорды вступления)
Кто-то уйдет, кто-то вернется,
Кто-то простит, кто-то осудит,
Меньше всего любви достается нашим
Самым любимым людям...
 
Много ветру, снегу много, неоглядна эта даль
Бесконечная дорога, быстротечная печаль.
Улыбнись мне на прощанье - слышишь, поезда гобой -
Я уеду не с вещами, я уеду сам с собой,
Я уеду не с вещами, я уеду сам с собой...
  
Кто-то уйдет, кто-то вернется,
Кто-то простит, кто-то осудит,
Меньше всего любви достается нашим
Самым любимым людям...
 
То, что в шутку ты сказала, буду помнить я всерьез
Видят старые вокзалы слишком много новых слез,
Принимай судьбу отрадно, не ищи других причин:
Разделились беспощадно мы на женщин и мужчин,
Разделились беспощадно мы на женщин и мужчин.
 
Кто-то уйдет, кто-то вернется,
Кто-то простит, кто-то осудит,
Меньше всего любви достается нашим
Самым любимым людям...


Текст, аккорды и табулатура для песни "От прощанья до прощанья", исполняет "Дольский Александр".
Используемые в песне аккорды можно найти в разделе Как брать аккорды. Аккорды для шестиструнной гитары. Другие песни можно найти на нашем сайте, воспользовавшись алфавитным указателем вверху страницы.


 
Ошибка в тексте? Выделите ошибку и нажмите Ctrl+Enter