Вступление:
  C                  C*
1-----3-----3------|-----2-----2-------
2---------5------5-|---------5------5--
3-5-----5-----5----|-4-----4-----4----- x2
4---5--------------|---5---------------
5------------------|-------------------
6------------------|-------------------
 
1------2-----2----|-----2-----3-----|--------------
2----------5------|---------5-------|-----7---57---
3--5-----5-----5--|---4---------4---|--4----4----4- Em
4-4--4------------|-2-----2---------|--------------
5-----------------|-----------------|-6-6----------
6-----------------|-----------------|--------------
 
     Em                Am
Нет в мире высшего блаженства,
      H7       Em
Чем осознание пути.
                   Am
Когда, достигнув совершенства,
            D7       G
Ты все же вынужден уйти.

           Am          H7
 Когда и сердцем, и мышленьем
           Am          H7
 Приемлешь равно мрак и свет,
           E7       Am Am/c
 Когда легчают сожаленья
   H7               E7
 О пустоте минувших лет.
         Am   D     G  C
 Когда легчают сожаленья
       Am    H7       Em
 О пустоте минувших лет.
 
И нет лекарства в мире лучше
От страха стать золой в золе,
Чем уяснить, что ты лишь случай -
Прекрасный случай на земле.
 
 Когда проводишь самых близких
 В недосягаемую даль.
 Когда уже не знаешь риска,
 А лишь терпенье и печаль.
 Когда уже не знаешь риска,
 А лишь терпенье и печаль.
 
Когда войдешь два раза в реку,
На дне останешься сухим,
Когда прощаешь человеку
Его успехи и грехи.

 Когда по взгляду и по вздоху
 Поймешь, что сделалось с душой.
 Когда тебе с другими плохо,
 А им с тобою хорошо.
 Когда тебе с другими плохо,
 А им с тобою хорошо.
 
Нет в мире высшего блаженства,
Чем осознание пути.
Когда, достигнув совершенства, 
Ты все же вынужден уйти.       / 2 раза


Текст, аккорды и табулатура для песни "Когда легчают сожаленья", исполняет "Дольский Александр".
Используемые в песне аккорды можно найти в разделе Как брать аккорды. Аккорды для шестиструнной гитары. Другие песни можно найти на нашем сайте, воспользовавшись алфавитным указателем вверху страницы.


 
Ошибка в тексте? Выделите ошибку и нажмите Ctrl+Enter