Часть 1

   Em              Am              H7              Em
1)|------0-----0--|------0-----0--|------2-----2--|------0-----0--|
2)|----0---0-----0|----1---1-----1|----0---0-----0|----0---0-----0|
3)|--0-------0----|--2-------2----|--2-------2----|--0-------0----|
4)|---------------|---------------|---------------|---------------|
5)|---------------|0--------------|2--------------|---------------|
6)|0--------------|---------------|---------------|0--------------|

   Em              Am              D               G(баре)
1)|------0-----0--|------0-----0--|------2-----2--|------3-----3--|
2)|----0---0-----0|----1---1-----1|----3---3-----3|----3---3-----3|
3)|--0-------0----|--2-------2----|--2-------2----|--4-------4----|
4)|---------------|---------------|0--------------|---------------|
5)|---------------|0--------------|---------------|5--------------|
6)|0--------------|---------------|---------------|---------------|

   Em              Am              D               G(баре) F#
1)|------0-----0--|------0-----0--|------2-----2--|------3|------2|
2)|----0---0-----0|----1---1-----1|----3---3-----3|----3--|----2--|
3)|--0-------0----|--2-------2----|--2-------2----|--4----|--3----|
4)|---------------|---------------|0--------------|-------|-------|
5)|---------------|0--------------|---------------|5------|4------|
6)|0--------------|---------------|---------------|-------|-------|

   Em              Am              H7              Em      G(баре) F#
1)|------0-----0--|------0-----0--|------2-----2--|------0|------3|------2|
2)|----0---0-----0|----1---1-----1|----0---0-----0|----0--|----3--|----2--|
3)|--0-------0----|--2-------2----|--2-------2----|--0----|--4----|--3----|
4)|---------------|---------------|---------------|-------|-------|-------|
5)|---------------|0--------------|2--------------|-------|5------|4------|
6)|0--------------|---------------|---------------|0------|-------|-------|

   Em      G(баре) F#
1)|--0----|--3----|--2----|
2)|--0----|--3----|--2----|
3)|--0----|--4----|--3----|
4)|--2----|--5----|--4----|
5)|--2----|--5----|--4----|
6)|0------|3------|2------|

Часть 2

   A7              Hm              G(баре)         Fm(на 7 ладу)
1)|------0-----0--|------2-----2--|------3-----3--|------3-----3--|
2)|----2---2-----2|----3---3-----3|----3---3-----3|----3---3-----3|
3)|--0-------0----|--4-------4----|--4-------4----|--4-------4----|
4)|2--------------|4--------------|---------------|---------------|
5)|---------------|---------------|5--------------|5--------------|
6)|---------------|---------------|---------------|---------------|

   Em              Am              H7              
1)|------0-----0--|------0-----0--|------2-----2--|
2)|----0---0-----0|----1---1-----1|----0---0-----0|
3)|--0-------0----|--2-------2----|--2-------2----|
4)|---------------|---------------|---------------|
5)|---------------|0--------------|2--------------|
6)|0--------------|---------------|---------------|

   Em      G(баре) F#
1)|--0----|--3----|--2----|
2)|--0----|--3----|--2----|
3)|--0----|--4----|--3----|
4)|--2----|--5----|--4----|
5)|--2----|--5----|--4----|
6)|0------|3------|2------|

Мне звезда упала на ладошку, 
Я ее спросил: - Откуда ты?
- Дайте мне передохнуть немножко,
Я с такой летела высоты.
А потом добавила, сверкая,
Словно колокольчик прозвенел: 
- Не смотрите,что невелика я,
 Я умею делать много дел.
        
Вам необходимо только вспомнить,
Что для Вас важней всего на свете.
Я могу желание исполнить, 
Я все время занимаюсь этим.

- Знаю я, что мне необходимо:
Мне не нужно долго вспоминать.
Я хочу любить и быть любимым 
Я хочу, чтоб не болела мать,
Чтоб на нашей горестной планете 
Только звезды падали с небес,
Были все доверчивы, как дети,
И любили дождь, цветы и лес.

Чтоб траву, как встарь,косой косили,
Каждый день летали до Луны,
Чтобы женщин на руках носили,
Не было болезней и войны,

Чтобы дружба не была обузой,
Чтобы верность в тягость не была,
Чтобы старость не тяжелым грузом 
-Мудростью бы на сердце легла,
Что бы у костра, пропахнув дымом,
Эту песню тихо напевать.
А еще хочу я быть любимым
И хочу, что б не болела мать.

Говорил я долго, но напрасно,
Долго, слишком долго говорил.
Не ответив мне. звезда погасла 
-Было у нее немного сил...




Текст, аккорды и табулатура для песни "Исполнение желаний", исполняет "Дольский Александр".
Используемые в песне аккорды можно найти в разделе Как брать аккорды. Аккорды для шестиструнной гитары. Другие песни можно найти на нашем сайте, воспользовавшись алфавитным указателем вверху страницы.


 
Ошибка в тексте? Выделите ошибку и нажмите Ctrl+Enter