Вступление:
                  V               VII                 VIII
1---7-5-3---3-2-0---8-7-5-------5-|---10-8-7-------------12-10-8-----------|
2---------------------------7-8---|------------8-7-8---------------10-8-10-|
3---------------------------------|----------------------------------------|
4---------------------------------|----------------------------------------|
5---------3---------------5-------|----------7-------------------9---------|
6-0---------------5---------------|-7------------------8-------------------|
 
  VII              V                 III             II                 Em(0)
1---787--------------5-5-5---5-----|---3-3-3---3-------5-3-2------------0-------------|
2------10-8-7-8-10---7-5-7-----7---|---5-3-3-----5-------------24242424---0-------0---|
3--------------------------------5-|---------------3-----------2------------2-0-2--0--|
4----------------------------------|------------------------------------------------2-|
5--------------------------6-------|---------4---------------2------------------------|
6-7----------------5---------------|-3---------------2------------------0-------------|
 
Em
Два мальчика на длинном берегу,
                            Am
Два юных существа святых и голых,
D                              G
Восторг и дрожь на них наводят волны и...
Am        H7        Em
Ветер их сбивает на бегу.
E7                     Am
Огромен мир и небо необъятно,
D                             G
И солнце друг, и море страшный друг.
Am            H7         C
Оно влечет, как тайна и испуг,
Am            H7         Em
Несут валы и пенистые пятна.

День бесконечен, время на течет,
Что значит завтра, что такое вечер,
Не знает пятилетний человечек и
Благу жизни воздает почет.
 
Он воздух, и вода, и сам он благо,
Глаза, как море, кожа, как песок,
Пугливый и беспечный полубог,
Не соизмеривший пути и шага.
 
Два мальчика и больше ни души,
А я не счет, я нынче не природа,
Я знаю химию земли и небосвода
И их судьбой, увы, могу вершить.
 
Слияние простора, ветра, вод,
С их легким существом исчезнет скоро,
Они уедут в северный свой город
И не заметят этот переход.
 
Два мальчика на длинном берегу...


Текст, аккорды и табулатура для песни "Два мальчика", исполняет "Дольский Александр".
Используемые в песне аккорды можно найти в разделе Как брать аккорды. Аккорды для шестиструнной гитары. Другие песни можно найти на нашем сайте, воспользовавшись алфавитным указателем вверху страницы.


 
Ошибка в тексте? Выделите ошибку и нажмите Ctrl+Enter