Do As Infinity
New World
Standard Tuning
Tabbed by Alex Fragd (mavrick_45)
[email protected]


Part one 00:18     X2
G---------------------------------------------------
D---------------------------------------------------
A---------------------------------444444---333333---
E---6666666---6666666---4444444---------------------

G-------------------------------------------
D-------------------------------------------
A-------------------------------------------
E---6666666---6666666---4444444---6666666---



Part two 
G---------------------------------------------------
D---------------------------------------------------
A---------------------------------777777---666666---
E---9999999---5555555---7777777---------------------

G-----------------------------------------------------------
D-----------------------------------------------------------
A-----------------------------------------------------------
E---9999999---5555555---11-11-11-11-11-11-11---4444444444---


Chorus X2
G-------------------------------------------------------------------
D---------------------------2--1------------------------------------
A---0000---2222---4444------------4---0000---2222---444---6-7-9-11--
E------------------------4------------------------------------------

                                                  First end I  Second end  
G----------------------------------------------I------------I-------------I
D--------------------------2—1-----------------I------------I-------------I
A---0000---2222---4444---------4---0000---2222-I-4444-44-22-I-44/16161616-I
E------------------------4---------------------I------------I-------------I


Repeat All


Part four
G----------------------------------------------------------
D----(sixteen’s)--------------------------222222---111111---
A---16161616161616---4444444---2222222---------------------
E----------------------------------------------------------

G----------------------------------------------
D----------------------------------------------
A---4444444---4444444---2222222----------------
E---------------------------------4444444/16---

Rest


Part five
G---13---11-----------------------11---13---
D-------------14---13---11---13-------------
A-------------------------------------------
E-------------------------------------------


Part three X4


Текст, аккорды и табулатура для песни "New World", исполняет "Do As Infinity".
Используемые в песне аккорды можно найти в разделе Как брать аккорды. Аккорды для шестиструнной гитары. Другие песни можно найти на нашем сайте, воспользовавшись алфавитным указателем вверху страницы.


 
Ошибка в тексте? Выделите ошибку и нажмите Ctrl+Enter