Do As Infinity
Hinjitsu Wa Seiten Nari
Standard Tuning
Tabbed by Alex Fragd (mavrick_45)
[email protected]



G---14p13h14--12--12/15--14p13h14-----------------------
D----------------------------------15p14h15--10p9h10---
A-------------------------------------------------------
E-------------------------------------------------------


G-------------------------------------------
D-------------------------------------------
A--------------------/10-----10-----10------
E---8-8--/8-8--/8-8------888----888----8---


G-------------------------2-2/62--------------------------66--77--9-
D------------------------------------------------33333--77-----------
A---11111--33333-------------------11111--33333----------------------
E----------------0-11111---------------------------------------------

	G------------------------2-2/62----------------------------
	D-----------------------------------------------------------
	A---11111--3333-------------------11111--33333-------8-8~---
	E---------------0-11111-------------------------1~----------


G-----------------------------------------
D-----------------------------------------   X3
A---8-88888-----------5-55555-------------
E------------5-55555-----------666--888---

G----------------------------------------------
D------------------------------888--10-10-10---
A---8-88888--7-77777--5-55555------------------
E----------------------------------------------


G-------------------------------------------
D-------------------------------------------
A--------------------/10-----10-----10------
E---8-8--/8-8--/8-8------888----888----8---


G-------------------------2-2/62---------------------------66--77--9-
D-----------------------------------------------2-33333--77-----------
A---11111--33333-------------------11111--3333------------------------
E----------------0-11111----------------------------------------------

	G------------------------2-2/62-----------------
	D------------------------------------------------
	A---11111--3333-------------------11111--33333---
	E---------------0-11111--------------------------


G------------------------------
D------------------------------  X2
A---8--8-7--7-5--5-------------
E-------------------666--888---


G-------------------------------------------
D-------------------------------------------
A---8-8888--12-12121212--5-5555-------------
E--------------------------------666--888---

	G---------------------------------------------
	D------------------------------888-10-10-10---
	A---8-88888-----------5-55555-----------------
	E------------5-55555--------------------------


G-------------------------------------------
D-------------------------------------------
A--------------------/10-----10-----10------
E---8-8--/8-8--/8-8------888----888----8---


G-------------------------2-2/62---------------------------66--77--9-
D-----------------------------------------------2-33333--77-----------
A---11111--33333-------------------11111--3333------------------------
E----------------0-11111----------------------------------------------

	G------------------------2-2/62-----------------
	D------------------------------------------------
	A---11111--3333-------------------11111--33333---
	E---------------0-11111--------------------------


G---------------------------------
D---------------11-11--12-12--14--
A---8888--12-12-------------------
E---------------------------------

	G-----------------------------------------------------
	D-----------------------------------------------------
	A-----------------8888-12-12--10-10--8-8--7-7---------
	E---66666--88888-------------------------------6--8---

G-----------------------------------------
D-----------------------------------------   X3
A---8-88888-----------5-55555-------------
E------------5-55555-----------666--888---

G---------------------------------------------------------------
D---------------------------12-1212121212-----------------------
A---8-88888--12-1212121212-----------------13-13-13--15-15-15---
E---------------------------------------------------------------

G-----------------------------------------------
D-----------------------------------------------
A---8-88888--12-1212121212--5-55555-------------
E------------------------------------666--888---

G------------------------------------------------------
D------------------------------------888-10-10-10-10---
A---8-88888--12-1212121212--5-55555--------------------
E------------------------------------------------------


Текст, аккорды и табулатура для песни "Honjitsu Wa Seiten Nari", исполняет "Do As Infinity".
Используемые в песне аккорды можно найти в разделе Как брать аккорды. Аккорды для шестиструнной гитары. Другие песни можно найти на нашем сайте, воспользовавшись алфавитным указателем вверху страницы.


 
Ошибка в тексте? Выделите ошибку и нажмите Ctrl+Enter