Do As Infinity
Grateful Journey
 Drop-D tuning
 Tabbed by Alex Fragd (mavrick45 )
[email protected]


 Intro - guitar/drums only
Part one X3
G---------------------------------------------------------------|
D---------------------------------------------------------------|
A-----------------33333333---44444444---77777777----------------|
D---66666666----------------------------------------------------|


Part two
G-------------------------------------------------|
 D------------------------------------------------|
A---------------------4444444444444444------------|
 D---6---5---3---1--------------------------------|

Part one X1
 Part two X1


 Part three
G-------------------------------------------------------------------------------|
D-------------------------------------------------------------------------------|
A---4444444444444444---3333333333333333---4444444444444444----------------------|
D-------------------------------------------------------------------------------|


 Part four
G-------------------------------------------------|
D-------------------------------------------------|
A---------------------6666666666666666------------|
D---2---3---5---6---------------------------------|


Part five X2
G---------------------------------------------------------------------------------------------|
D---------------------------------------------------------------------------------------------|
A-44444444---33333333-------------------------------44444444---33333333---66666666---888---666|
D-----------------------------55555555---66666666---------------------------------------------|


Repeat All


 Part six X3
G---------------------------------------------------------------------------------|
D---------------------------------------------------------------------------------|
A-----------------------------------------333---33---33---444---44---44-----------|
D---666---66---66---111---11---11-------------------------------------------------|

Rest
Part four X1
Part five X2


Part seven
G----------------------------------------|
D----------------------------------------|
A---44444444---33333333------------------|
D--------------------------------1~-----|


 Part one X4

Ending
G--------------------------------------|
D--------------------------------------|
A---------333---666---666---6---------|
D---666--------------------------------|


Текст, аккорды и табулатура для песни "Grateful Journey", исполняет "Do As Infinity".
Используемые в песне аккорды можно найти в разделе Как брать аккорды. Аккорды для шестиструнной гитары. Другие песни можно найти на нашем сайте, воспользовавшись алфавитным указателем вверху страницы.


 
Ошибка в тексте? Выделите ошибку и нажмите Ctrl+Enter