Song: Heaven
Artist: DJ Sammy
Tabbed By: Jerry Tran
Email: [email protected]
=========================

Intro:
  D       Bm      Asus      A          Em7        Bm7        C9       G  A  D
e-2--5----2--5----2--5-----------------3----3-2----------0-2-2----3-----------|
B-3-5-----3-5-----3-5-----3-2----3-2---0--------3-3----3-----3------3-3--2--3-|
G---------------------------2-------2-------------2-------------------0--2--2-|
D-0----------------------------------2-2------------------------------------0-|
A---------2-------0---------0---------------------2----------3--------2--0----|
E-----------------------------------------------------------------------------|

Verse:
 D       Bm      A           Em      Bm7     Cadd9   A
-----2---------------------|-----------------------------------|
-----3-------3-------2-----|-----0-------3-------3-------2-----|
---2---------4-------2-----|-----0-------2-------0-------2-----|
-0-----0---4-------2---2---|---2---2---4---4---2---2---2---2---|
---------2-----2-0-------0-|---------2-------3-------0-------0-|
---------------------------|-0---------------------------------|
     Oh....about....years...only....me......young...free

 D       Bm      A           Em      Bm7     Cadd9   G       A     Asus    A
-----2---------------------|---------------------------------------------------|
-----3-------3-------2-----|-----0-------3-------3-------3-------2---3---3---2-|
---2---------4-------2-----|-----0-------2-------0-------0-------2---2---2---2-|
-0-----0---4-------2---2---|---2---2---4---4---2---2---0---0---2---2---2---2---|
---------2-----2-0-------0-|---------2-------3-------2-------0-----------------|
---------------------------|-0-------------------------------------------------|
    now.....take....me......down..before........now.........coming..more..

Chorus:
 G   A   Bm          D           G         G   A   Bm          A
---------------------------2-----------3-|-----------------------------------|
----3---2------3-----------3-----------3-|----3---2------3-----------2-------|
---0---2-------4--------2-----2-----0----|---0---2-------4-----------2-------|
--0---2-----4-----4--0-------------------|--0---2-----4-----4-----2-----2----|
-----0---2-----------------------2-------|-----0---2-----------0-----------0-|
-3---------------------------------------|-3---------------------------------|
baby....want........lying.......arms      finding.............heaven

 G   A   Bm          D           G         G   A   Bm          A
---------------------------2-----------3-|-----------------------------------|
----3---2------3-----------3-----------3-|----3---2------3-----------2-------|
---0---2-------4--------2-----2-----0----|---0---2-------4-----------2-------|
--0---2-----4-----4--0-------------------|--0---2-----4-----4-----2-----2----|
-----0---2-----------------------2-------|-----0---2-----------0-----------0-|
-3---------------------------------------|-3---------------------------------|
love....need........finally.....heart     isn't...see.........heaven

Bridge:
     Em7             G                       Dsus2           A
-0--------3--------------------------------------0---0---0---------------------|
--2------0---0---0-------0-------0-------0-------3---3---3-------2----2----2---|
---2----0------0--0------0-------0-------0-----2---2---2---2-----2----2----2---|
----2----------2---2---0---0---0---0---0---0-0-----------------2----2----2---2-|
---------------2---------------------------------------------0----0----0-------|
-----0---------0-----3-------3-------3-----------------------------------------|
           ...wait..long........some......arrive............along

 Em7             G                       Dsus2           Aadd9   Asus      A
------3--------------------------------------0---0---0-------------------------|
-----0---0---0-------0-------0-------0-------3---3---3-------0----3----3-----2-|
----0------0--0------0-------0-------0-----2---2---2---2-----2----2----2-----2-|
-----------2---2---0---0---0---0---0---0-0-----------------2----2----2---2--2--|
-----------2---------------------------------------------0----0----0-------0---|
-0---------0-----3-------3-------3---------------------------------------------|
       ..dreams.............good.......bad.......................you

Outro:
 G     A     Bm           D           G           G     A     Bm           A
--------------------------------2--------------------------------------------|
----3-----2---------3-----------3--------------------3-----2---------3-----2-|
----0-----2-------4----4-----2-----2-----------------0-----2-------4----4--2-|
----------------4---------0-----------------0--------------------4---------2-|
-------0-----2---------------------------2-----2--------0-----2------------0-|
-3------------------------------------3-----------3--------------------------|
 oh...oh.....oh                                   oh....oh...oh........heaven


Verse 1:

D     Bm                 A                        Em          Bm7       
  Oh thinking about our younger years. There was only you and me
          Cadd9               A
  We were young and wild and free
D      Bm                   A                        Em               Bm7
  Now nothing can take you away from me. We've been down that road before
            Cadd9     G               A               Asus   A       
  But thats over now     You keep me comming back for more


Chorus:

         G         A          Bm              D                G
        Baby your all that I want, when your lying here in my arms
         G          A         Bm	         A
        Finding it hard to believe, we're in heaven
         G       A          Bm             D                     G
        Love is all that I need, when I'm finally there in your heart
         G         A      Bm		    A
        Is'nt too hard to see, we're in heaven


Verse 2:

D     Bm		     A                     Em               Bm7
  Oh Once in your life you find someone. She will turn your world around 
          Cadd9  	        A
  Pick you up when you feeling down
D      Bm			   A                    Em	         Bm7
  Now nothing can change what you mean to me. Theres a love that I could say 
	   Cadd9	G             A		         Asus   A
  But just hold me now     Cause our love will light the way


Bridge:

Em7                         G	                  Dsus2    	          A
  I've been waiting for so long, for something to arrive, then you came along
Em7	          	       G			         Dsus2
  Now our dreams are comming true, through the good times and the bad
      	   Aadd9	    Asus   A
  I'll be standing there by you


=======
Intro 
Verse 1 
Chorus 
Verse 2 
Chorus 
Outro
=======


Текст, аккорды и табулатура для песни "Heaven", исполняет "Dj Sammy".
Используемые в песне аккорды можно найти в разделе Как брать аккорды. Аккорды для шестиструнной гитары. Другие песни можно найти на нашем сайте, воспользовавшись алфавитным указателем вверху страницы.


Слушать онлайн Heaven in the Style of DJ Sammy


Sunfly KaraokeHeaven in the Style of DJ Sammy на Яндекс.Музыке


 
Ошибка в тексте? Выделите ошибку и нажмите Ctrl+Enter