#----------------------------------PLEASE NOTE---------------------------------#
#This file is the author's own work and represents their interpretation of the #
#song. You may only use this file for private study, scholarship, or research. #
#------------------------------------------------------------------------------##
#

#----------------------------------PLEASE NOTE---------------------------------#
#This file is the author's own work and represents their interpretation of the #
#song. You may only use this file for private study, scholarship, or research. #
#------------------------------------------------------------------------------#

DIZZY MISS LIZZY-Silverflame   Tabbed by: MALMIS
put on the net by olli email: [email protected]
intro
e------------------0------------------------------0------------------------------------0-------------------|
b--------------8------8------------------------8-----8----------------------------8--------8------------|--|
g----------7------------7------------------7-------------7-------------------7-----------------7-----------|
d----10--------------------10-------10----------------------10-------10-------------------------10---------|
a-0-------------------------------0---------------------------------8--------------------------------------|
E----------------------------------------------------------------------------------------------------------|

e--------------------0-----------------------0----------------------------------0---------------------------------0--------|
B----------------8---------------------10------10-------------------------8------8-------------------------6------6--------|
G------------7--------------------7-----------------7------------------7--------------7-----------------7--------------7---|
D------10-------------------10-------------------------10-------10----------------------10-------6----------------------6--|
A--8--------------------9-------------------------------------8---------------------------------7--------------------------|
E--------------------------------------------------------------------------------------------------------------------------|

e--------------------0--------------------------|
B---------------0-------0-----------------------|
G-----------5---------------5-------------------|
D------7------------------------7---------------|
A--0--------------------------------0-----------|
E-----------------------------------------------|

e------------------0------------------------------0------------------------------------0-------------------|
b--------------8------8------------------------8-----8----------------------------8--------8------------|--|
g----------7------------7------------------7-------------7-------------------7-----------------7-----------|
d----10--------------------10-------10----------------------10-------10-------------------------10---------|
a-0-------------------------------0---------------------------------8--------------------------------------|
E----------------------------------------------------------------------------------------------------------|
   Sorrow hides under the water ...

e--------------------0-----------------------0----------------------------------0---------------------------------0--------|
B----------------8---------------------10------10-------------------------8------8-------------------------6------6--------|
G------------7--------------------7-----------------7------------------7--------------7-----------------7--------------7---|
D------10-------------------10-------------------------10-------10----------------------10-------6----------------------6--|
A--8--------------------9-------------------------------------8---------------------------------7--------------------------|
E--------------------------------------------------------------------------------------------------------------------------|

e--------------0----------------|
B-----------6-------------------|
G--------7----------------------|
D-----6-------------------------|
A--7----------------------------|
E-------------------------------|

e------------------0------------------------------0------------------------------------0-------------------|
b--------------8------8------------------------8-----8----------------------------8--------8------------|--|
g----------7------------7------------------7-------------7-------------------7-----------------7-----------|
d----10--------------------10-------10----------------------10-------10-------------------------10---------|
a-0-------------------------------0---------------------------------8--------------------------------------|
E----------------------------------------------------------------------------------------------------------|


e--------------------0-----------------------0----------------------------------0---------------------------0------------|
B----------------8---------------------10------10-------------------------6------6-------------------0-------0-----------|
G------------7--------------------7-----------------7------------------7--------------7------------5------------5--------|
D------10-------------------10-------------------------10---------6----------------------6-----7-----------------7-------|
A--8--------------------9---------------------------------------7------------------------------0----------------------0--|
E------------------------------------------------------------------------------------------------------------------------|

vers
e--------------------------------------------------------------------------------------|
h--------------------------------------------------------------------------------------|
g--------0-------------0---------------h---------0-----------------------------|   :---|
d-----2----2------3-------3------------0---2--------2-------h-------0--------|   :-----|
a--0-------------------------------3----__/-----------------0    2-------2------------|
E-------------1------------------------------------------3----__/---------------------|
GIRL IN A GLASSBOX DRESSED IN WHITE ....

bridge       little dist.
e--------------------------------------------------------------------------------------------------|
h--------------------------------------------------------------------------------------------------|
g--------4-----------5------------5-------------5-------------5-----4-----0------2-----------------|
d-----2-----2----3-----3-----4------4------3------3------2-----2-----2------2----------------------|
a--0-----------0-----------0-------------0--------------0------------------------------------------|
E--------------------------------------------------------------------------------------------------|

refrain      heavy dist				                         _
e-------------------------------------------------|         |-------------3-----------------------------------|-------/------|
h-------h------8-------h------6------h-------5|     /    |-----h--------------h--------6---------------5-|--5---6---5---3-----|
g-------4-5------------4--5----------4---5----| * /  *  | ----4--5-----------4---5-----------4--5------|--5---5--------4------|
d---7---_/---------7---_/-------7----_/-----|  /        |--3--_/--------3----_/---------3---_/-------|--5------------5--|
a------------------------------------------------|           |-------------------------------------------------|--------------|
E------------------------------------------------|          |-------------------------------------------------|---------------|
SAY MY NAME SILVERFLAME....
                                                                  1  ___________  2
e-------______----------------------------------___------|-----------------------|
B-----/            -------------------------------/       -----|---------------|
G---4-----5-----4--------7-----5------4-----5-------4--*-|-----------------------|
D----5---------------5---5------5-----5------5----------*-|---7------------------|
A------------------------------------------------------------|-------------------|
E------------------------------------------------------------|-------------------|
After half of the solo this riff will be moved three frets up (you start at fret 10 instead of fret 7)

SORROW  HIDES UNDER THE WATER
SORROW IS MY ONLY FRIEND
SORROW STANDS BESIDE THE DOORWAY
SORROW LENDS A HELPING HAND

GIRL IN A GLASSBOX DRESSEED IN WHITE
HAPPY ENOUGH TO COMMIT SUICIDE
SHE SAID SILVERS MENT TO BURN FOREVER

SLEEPING FOREVER IN A BUBBLE OF BLUE
SAY WOULD YOU LIKE TO SEE HER POINT VIEW
SHE SAID SILVERS MENT TO BURN FOREWER     FOREWER

||:SAY MY NAME SILVERFLAME AND TAKE CONTROL
OF MY HEART OF MY MIND AND OF MY SOUL
WHAT A SHAME SILVERFLAME
THAT YOU CAN'T BURN FOREWER.:||
				(Dizzy Miss Lizzy Silverflame 3/3
AND IN THE GARDEN THEIR?S A CHEEP HOTEL
ONLY INVITED IF YOUR THING WENT WELL
SHE SAID SILVER'S MENT TO BURN FOREWER

SLEEPING FOREWER IN A BUBBLE OF BLUE
SAY WOULD YOU LIKE TO SEE HER POINT OF VIEW
SHE SAID SILVER'S WENT TO BURN FOREWER.

Solo: The solo is based on a A-minor blues scale (E5E8A5A6A7D5D7) and some other tunes here and there. 
half the solo it is modulated one and a half step up ( three frets) to C-minor blues scale (E8E11A8A9A10D8D10).


Текст, аккорды и табулатура для песни "Silverflame", исполняет "Dizzy Mizz Lizzy".
Используемые в песне аккорды можно найти в разделе Как брать аккорды. Аккорды для шестиструнной гитары. Другие песни можно найти на нашем сайте, воспользовавшись алфавитным указателем вверху страницы.


Слушать онлайн Silverflame


Dizzy Mizz LizzySilverflame на Яндекс.Музыке


 
Ошибка в тексте? Выделите ошибку и нажмите Ctrl+Enter