Dizzy Mizz Lizzy
Silverflame

Hello everybody.....this is one of the greatest danish rock songs ever, made by
the greatest danish rock bands ever.....try it! The tuning is two steps down, DGCFAD

Intro:
D------------0-----------------10-----------------0-----------------0--------
A---------8----8-------------8----8-------------8---8-------------8----------
F-------7--------7---------7--------7---------7-------7---------7------------
C----10------------10---10------------10---10-----------10---10--------------
G--0------------------0------------------8-----------------8-----------------
D----------------------------------------------------------------------------

D------------0------------------0----------------0---------------0-----------
A---------10---10-------------8---8------------7---7-----------0---0---------
F-------7---------7---------7-------7--------6-------6-------5-------5-------
C----10-------------10---10-----------10---7-----------7---7-----------7-----
G--9-------------------8-----------------6---------------0---------------0---
D----------------------------------------------------------------------------

A-verse:
  Sorrow hides under the water________________________________________
D------------0-----------------10-----------------0-----------------0--------
A---------8----8-------------8----8-------------8---8-------------8----------
F-------7--------7---------7--------7---------7-------7---------7------------
C----10------------10---10------------10---10-----------10---10--------------
G--0------------------0------------------8-----------------8-----------------
D----------------------------------------------------------------------------

  Sorrow is my only friend, yeah__________________________________
D------------0------------------0----------------0---------------0-----------
A---------10---10-------------8---8------------7---7-----------7-------------
F-------7---------7---------7-------7--------6-------6-------6---------------
C----10-------------10---10-----------10---7-----------7---7-----------------
G--9-------------------8-----------------6---------------6-------------------
D----------------------------------------------------------------------------

  Sorrow stands beside the doorway____________________________________
D------------0-----------------10-----------------0-----------------0--------
A---------8----8-------------8----8-------------8---8-------------8----------
F-------7--------7---------7--------7---------7-------7---------7------------
C----10------------10---10------------10---10-----------10---10--------------
G--0------------------0------------------8-----------------8-----------------
D----------------------------------------------------------------------------

  Sorrow needs a helping hand___________________________________________
D------------0------------------0----------------0---------------0-----------
A---------10---10-------------8---8------------7---7-----------0---0---------
F-------7---------7---------7-------7--------6-------6-------5-------5-------
C----10-------------10---10-----------10---7-----------7---7-----------7-----
G--9-------------------8-----------------6---------------0---------------0---
D----------------------------------------------------------------------------

B-verse:

(1.)     Girl in a glassbow dressed in white___________________________   
(2.,4.)  Sleeping forever in a bubble of blue__________________________
(3.)     And in the garden is a cheap hotel____________________________  
D----------------------------------------------------------------------------
A----------------------------------------------------------------------------
F----------0------------0---------------0------------------------------------
C------2------2------3-----3-------0h2------2-----------0--------------------
G---0---------------------------3------------------0h2-------2---------------
D-----------------1----------------------------3-----------------------------

(1.)     Happy enough to commit suicide_________________________________
(2.,4.)  would you like to see her point of view________________________
(3.)     Only invited if you thing went well____________________________
D----------------------------------------------------------------------------
A----------------------------------------------------------------------------
F----------0------------0---------------0------------------------------------
C------2------2------3-----3-------0h2------2-----------0--------------------
G---0---------------------------3------------------0h2-------2---------------
D-----------------1----------------------------3-----------------------------

(1.)      She said, silver’s meant to forever_________________________
(2.,4.)   She said, silver’s meant to forever_________________________
(3.)      She said, silver’s meant to forever_________________________
D----------------------------------------------------------------------------
A----------------------------------------------------------------------------
F----------0------------0---------------0------------------------------------
C------2------2------3-----3-------0h2------2-----------0--------------------
G---0---------------------------3------------------0h2-------2---------------
D-----------------1----------------------------3-----------------------------
(2. and 4. time)
  Forever______________________________forever oh___________________________
D----------------------------------------------------------------------------
A----------------------------------------------------------------------------
F---------4-----------5-----------5-----------5-----------5-----4-----0----2-
C------2-----2-----3-----3-----4-----4-----3-----3-----2-----2-----2-------2-
G---0-----------0-----------0-----------0-----------0----------------------0-
D----------------------------------------------------------------------------

chorus:
         Say my   name          Silverflame    and     take  control
D------------------3---------------------------------------------------------
A---------------------------------------6-----------------------5------------
F----2—----4h5------------2------4h5-------------2------4h5------------------
C----------------------------------------------------------------------------
G----------------------------------------------------------------------------
D----------------------------------------------------------------------------
          Of my   heart  (and)  of my  mind     and    of my   soul
D------------------3---------------------------------------------------------
A---------------------------------------6-----------------------5------------
F----2—----4h5------------2------4h5-------------2------4h5------------------
C----------------------------------------------------------------------------
G----------------------------------------------------------------------------
D----------------------------------------------------------------------------
    oh  what a   shame        Silverflame     that you can’t  burn
D------------------3---------------------------------------------------------
A--------------------------------------6------------------------5------------
F----—----4h5------------------4h5-------------------4h5---------------------
C----3-------------------3---------------------3-----------------------------
G----------------------------------------------------------------------------
D----------------------------------------------------------------------------

  forever_________________________
D---------------------------------------------------------
A-----5---5---3--3--3-------------------------------------
F-----5---5---4--4--4-------------------------------------
C-----5---5---5--5--5-------------------------------------
G---------------------------------------------------------
D---------------------------------------------------------

         Say my   name          Silverflame    and     take  control
D------------------3---------------------------------------------------------
A---------------------------------------6-----------------------5------------
F----2—----4h5------------2------4h5-------------2------4h5------------------
C----------------------------------------------------------------------------
G----------------------------------------------------------------------------
D----------------------------------------------------------------------------
          Of my   heart  (and)  of my  mind     and    of my   soul
D------------------3---------------------------------------------------------
A---------------------------------------6-----------------------5------------
F----2—----4h5------------2------4h5-------------2------4h5------------------
C----------------------------------------------------------------------------
G----------------------------------------------------------------------------
D----------------------------------------------------------------------------
    oh  what a   shame        Silverflame     that you can’t  burn
D------------------3---------------------------------------------------------
A--------------------------------------6------------------------5------------
F----—----4h5------------------4h5-------------------4h5---------------------
C----3-------------------3---------------------3-----------------------------
G----------------------------------------------------------------------------
D----------------------------------------------------------------------------
  forever____________   oh__________________________________________
D----------------------------------------------------------------------------
A-----5---5---3--3--3--------------------------------------------------------
F-----5---5---4--4--4-------0--------0----------0----------------------------
C-----5---5---5--5--5-----2---2----3---3----0h2---2--------0-----------------
G-----------------------0-----------------3------------0h2---2---------------
D--------------------------------1-------------------3-----------------------
  yeah________________________________________________________
D----------------------------------------------------------------------------
A----------------------------------------------------------------------------
F----------0------------0---------------0------------------------------------
C------2------2------3-----3-------0h2------2-----------0--------------------
G---0---------------------------3------------------0h2-------2---------------
D-----------------1----------------------------3-----------------------------
  ooooh  yeah_________________________________________________
D----------------------------------------------------------------------------
A----------------------------------------------------------------------------
F----------0------------0---------------0------------------------------------
C------2------2------3-----3-------0h2------2-----------0--------------------
G---0---------------------------3------------------0h2-------2---------------
D-----------------1----------------------------3-----------------------------
  aaaahhh__________________________________________________________
D----------------------------------------------------------------------------
A----------------------------------------------------------------------------
F---------4-----------5-----------5-----------5-----------5-----4-----0------
C------2-----2-----3-----3-----4-----4-----3-----3-----2-----2-----2---------
G---0-----------0-----------0-----------0-----------0------------------------
D----------------------------------------------------------------------------

3. og 4. verse (B-verse)
chorus

chorus (again)
  Ooooooooooooooooooooohhhhhhhhhhhhhhhhhhh_________________________
D------------------3---------------------------------------------------------
A---------------------------------------6-----------------------5------------
F----2—----4h5------------2------4h5-------------2------4h5------------------
C----------------------------------------------------------------------------
G----------------------------------------------------------------------------
D----------------------------------------------------------------------------
  Ooooooooooooooooooooohhhhhhhhhhhhhhhhhhh_________________________
D------------------3---------------------------------------------------------
A---------------------------------------6-----------------------5------------
F----2—----4h5------------2------4h5-------------2------4h5------------------
C----------------------------------------------------------------------------
G----------------------------------------------------------------------------
D----------------------------------------------------------------------------
  yeah_______________________________________________
D------------------3---------------------------------------------------------
A--------------------------------------6------------------------5------------
F----—----4h5------------------4h5-------------------4h5---------------------
C----3-------------------3---------------------3-----------------------------
G----------------------------------------------------------------------------
D----------------------------------------------------------------------------

D----------------------------------------------------------------------------
A-----5---5---3--3--3--------------------------------------------------------
F-----5---5---4--4--4--------------------------------------------------------
C-----5---5---5--5--5--------------------------------------------------------
G----------------------------------------------------------------------------
D----------------------------------------------------------------------------

Solo:

guitar 1:
sologuitar (couldn't play that!)

guitar 2 plays the chorus-riff 2 or 3 times, then move the riff 3 frets up:
D-----------------6----------------------------------------------------------
A-------------------------------------9-----------------------8--------------
F----5-----7h8---------5-----7h8--------------5-----7h8----------------------
C----------------------------------------------------------------------------
G----------------------------------------------------------------------------
D----------------------------------------------------------------------------

D-----------------6----------------------------------------------------------
A-------------------------------------9-----------------------8--------------
F----5-----7h8---------5-----7h8--------------5-----7h8----------------------
C----------------------------------------------------------------------------
G----------------------------------------------------------------------------
D----------------------------------------------------------------------------

D-----------------6----------------------------------------------------------
A-------------------------------------9-----------------------8--------------
F----------7h8---------------7h8--------------------7h8----------------------
C----6-----------------6----------------------6------------------------------
G----------------------------------------------------------------------------
D----------------------------------------------------------------------------

D----------------------------------------------------------------------------
A---8--8---6--6--6-----------------------------------------------------------
F---8--8---7--7--7-----------------------------------------------------------
C---8--8---8--8--8-----------------------------------------------------------
G----------------------------------------------------------------------------
D----------------------------------------------------------------------------

Solo stops.

outro:
guitar 1:
D----------------------------------------------------------------------------
A-----------------11---------------------------------------------------------
F----------------------------------------13---------------------12-----------
C---10----12h13----------10----12h13------------10------12h13----------------
G----------------------------------------------------------------------------
D----------------------------------------------------------------------------

Guitar 2:
D------------------6---------------------------------------------------------
A-----------------------------------------9----------------------8-----------
F----5-----7h8------------5-----7h8--------------5-------7h8-----------------
C----------------------------------------------------------------------------
G----------------------------------------------------------------------------
D----------------------------------------------------------------------------

Guitar 1:
D----------------------------------------------------------------------------
A-----------------11---------------------------------------------------------
F----------------------------------------13---------------------12-----------
C---10----12h13----------10----12h13------------10------12h13----------------
G----------------------------------------------------------------------------
D----------------------------------------------------------------------------

Guitar 2:
D------------------6---------------------------------------------------------
A-----------------------------------------9----------------------8-----------
F----5-----7h8------------5-----7h8--------------5-------7h8-----------------
C----------------------------------------------------------------------------
G----------------------------------------------------------------------------
D----------------------------------------------------------------------------

Guitar 1:
D----------------------------------------------------------------------------
A-----------------11---------------------------------------------------------
F----------------------------------------13---------------------12-----------
C---------12h13----------------12h13--------------------12h13----------------
G----11------------------11----------------------11--------------------------
D----------------------------------------------------------------------------

Guitar 2:
D-----------------6----------------------------------------------------------
A-----------------------------------------9----------------------8-----------
F----------7h8------------------7h8----------------------7h8-----------------
C----6-------------------6----------------------6----------------------------
G----------------------------------------------------------------------------
D----------------------------------------------------------------------------

Guitar 1:
D----------------------------------------------------------------------------
A---8--8---6--6--6-----------------------------------------------------------
F---8--8---7--7--7-----------------------------------------------------------
C---8--8---8--8--8-----------------------------------------------------------
G----------------------------------------------------------------------------
D----------------------------------------------------------------------------

Guitar 2:
D----------------------------------------------------------------------------
A---8--8---6--6--6-----------------------------------------------------------
F---8--8---7--7--7-----------------------------------------------------------
C---8--8---8--8--8-----------------------------------------------------------
G----------------------------------------------------------------------------
D----------------------------------------------------------------------------

Guitar 1:
D----------------------------------------------------------------------------
A------------------8---------------------------------------------------------
F----------------------------------------10----------------------8-----------
C---10----8h10-----------10----8h10-------------10-------8h10----------------
G----------------------------------------------------------------------------
D----------------------------------------------------------------------------

Guitar 2:
D------------------6---------------------------------------------------------
A-----------------------------------------9----------------------8-----------
F----5-----7h8------------5-----7h8--------------5-------7h8-----------------
C----------------------------------------------------------------------------
G----------------------------------------------------------------------------
D----------------------------------------------------------------------------

Guitar 1:
D----------------------------------------------------------------------------
A------------------8---------------------------------------------------------
F----------------------------------------10----------------------8-----------
C---10----8h10-----------10----8h10-------------10-------8h10----------------
G----------------------------------------------------------------------------
D----------------------------------------------------------------------------

Guitar 2:
D------------------6---------------------------------------------------------
A-----------------------------------------9----------------------8-----------
F----5-----7h8------------5-----7h8--------------5-------7h8-----------------
C----------------------------------------------------------------------------
G----------------------------------------------------------------------------
D----------------------------------------------------------------------------

Guitar 1:
D----------------------------------------------------------------------------
A-----------------8----------------------------------------------------------
F----------------------------------------10----------------------8-----------
C---------8h10-----------------8h10---------------------8h10-----------------
G---11-------------------11--------------------11----------------------------
D----------------------------------------------------------------------------

Guitar 2:
D-----------------6----------------------------------------------------------
A-----------------------------------------9----------------------8-----------
F----------7h8------------------7h8----------------------7h8-----------------
C----6-------------------6----------------------6----------------------------
G----------------------------------------------------------------------------
D----------------------------------------------------------------------------

Guitar 1:
D----------------------------------------------------------------------------
A------------------8---------------------------------------------------------
F----------------------------------------10----------------------8-----------
C---10----8h10-----------10----8h10-------------10-------8h10----------------
G----------------------------------------------------------------------------
D----------------------------------------------------------------------------

Guitar 2:
D------------------6---------------------------------------------------------
A-----------------------------------------9----------------------8-----------
F----5-----7h8------------5-----7h8--------------5-------7h8-----------------
C----------------------------------------------------------------------------
G----------------------------------------------------------------------------
D----------------------------------------------------------------------------

Guitar 1:
D----------------------------------------------------------------------------
A------------------8---------------------------------------------------------
F----------------------------------------10----------------------8-----------
C---10----8h10-----------10----8h10-------------10-------8h10----------------
G----------------------------------------------------------------------------
D----------------------------------------------------------------------------

Guitar 2:
D------------------6---------------------------------------------------------
A-----------------------------------------9----------------------8-----------
F----5-----7h8------------5-----7h8--------------5-------7h8-----------------
C----------------------------------------------------------------------------
G----------------------------------------------------------------------------
D----------------------------------------------------------------------------

Guitar 1:
D----------------------------------------------------------------------------
A-----------------8----------------------------------------------------------
F----------------------------------------10----------------------8-----------
C---------8h10-----------------8h10---------------------8h10-----------------
G---11-------------------11--------------------11----------------------------
D----------------------------------------------------------------------------

Guitar 2:
D-----------------6----------------------------------------------------------
A-----------------------------------------9----------------------8-----------
F----------7h8------------------7h8----------------------7h8-----------------
C----6-------------------6----------------------6----------------------------
G----------------------------------------------------------------------------
D----------------------------------------------------------------------------

Guitar 1:
D----------------------------------------------------------------------------
A---8--8---6--6--6-----------------------------------------------------------
F---8--8---7--7--7---8-------------------------------------------------------
C---8--8---8--8--8-----------------------------------------------------------
G----------------------------------------------------------------------------
D----------------------------------------------------------------------------

Guitar 2:
D----------------------------------------------------------------------------
A---8--8---6--6--6-----------------------------------------------------------
F---8--8---7--7--7---8-------------------------------------------------------
C---8--8---8--8--8-----------------------------------------------------------
G----------------------------------------------------------------------------
D----------------------------------------------------------------------------

That's it! Little long perhaps, but I hope you'll enjoy anyway!


Текст, аккорды и табулатура для песни "Silverflame", исполняет "Dizzy Mizz Lizzy".
Используемые в песне аккорды можно найти в разделе Как брать аккорды. Аккорды для шестиструнной гитары. Другие песни можно найти на нашем сайте, воспользовавшись алфавитным указателем вверху страницы.


Слушать онлайн Silverflame


Dizzy Mizz LizzySilverflame на Яндекс.Музыке


 
Ошибка в тексте? Выделите ошибку и нажмите Ctrl+Enter