Hi again....... this song became a major hit in Japan, and was Dizzy's
breakthrough in the east, which is probably where they were most famous
(beside Denmark of course =) ) Once again the tuning is DGCFAD..... enjoy!

Riff A:
D-------------------------------------------------------------------------
A-------8-------6-------9-------8--------8--------9--------11--------11---
F-----5---5---5---5---7---7---7---7----8---8----8---8----8----8----8------
C---6-------6-------8-------8-------10-------10-------10--------10--------
G-------------------------------------------------------------------------
D-------------------------------------------------------------------------

D-------------------------------------------------------------------------
A-------8-------6------6--------------------------------------------------
F-----5---5---5------4---4---4---5--5-----------(5)-(7)-------------------
C---6-------6------5-------5----------5-------(5)-------------------------
G---------------------------------------6---(6)---------------------------
D-----------------------------------------8-------------------------------

()= play only the first time

Riff B:
    Wel-come  to   my    in-spi-ra-tion    Flo-wers in our hair
   This re -mind  you     of the six-ties………I making a mistake
D--------------------------------------------------------------------------
A--------------------------------------------------------------------------
F--------------------------------------------------------------------------
C--------5----8----7------8--7---10---9---------5----8--7---8---7--10---9--
G----3---3----6----6------8--8---10--10-----3---3----6--6---8---8--10--10--
D--------------------------------------------------------------------------

  grass is grow - ing   high this summer………something in the air
  ……one gui-tar  one   bass and  a drummer……really all it takes
D--------------------------------------------------------------------------
A--------------------------------------------------------------------------
F--------------------------------------------------------------------------
C--------5---8----7------8---7---10---9---------5----8--7---8---7--10---9--
G----3---3---6----6------8---8---10--10-----3---3----6--6---8---8--10--10--
D--------------------------------------------------------------------------

Riff C:
   but I lied       and i tried    but I always seem to he-si-tate
D-------------------------------------------------------------------------
A-------------------------------------------------------------------------
F-------------------------------------------------------------------------
C---5-5-5-5----------8-8-8-8-------10-10-10-10-----------12-10--9---------
G---3-3-3-3(muted)---6-6-6-6-------8--8--8--8------------10-10-10---------
D-------------------------------------------------------------------------

Riff A:
But something’s wrong, inside my heart, in the name of glory yeah
D-------------------------------------------------------------------------
A-------8-------6-------9-------8--------8--------9--------11--------11---
F-----5---5---5---5---7---7---7---7----8---8----8---8----8----8----8------
C---6-------6-------8-------8-------10-------10-------10--------10--------
G-------------------------------------------------------------------------
D-------------------------------------------------------------------------

  She don’t care to much for moonlight sun
D--------------------------------------------------------------
A-------8-------6------6---------------------------------------
F-----5---5---5------4---4---4---5--5-----------(5)-(7)--------
C---6-------6------5-------5----------5-------(5)--------------
G---------------------------------------6---(6)----------------
D-----------------------------------------8-------------------- repeat Riff A twice

Riff B:
   Peace and love and   under – standing will make you feel so free
D--------------------------------------------------------------------------
A--------------------------------------------------------------------------
F--------------------------------------------------------------------------
C--------5----8----7------8--7---10---9---------5----8--7---8---7--10---9--
G----3---3----6----6------8--8---10--10-----3---3----6--6---8---8--10--10--
D--------------------------------------------------------------------------

   psy-che - de – lic    vision  ba- by………… be re -  a-li -ty 
D--------------------------------------------------------------------------
A--------------------------------------------------------------------------
F--------------------------------------------------------------------------
C--------5----8----7------8--7---10---9---------5----8--7---8---7--10---9--
G----3---3----6----6------8--8---10--10-----3---3----6--6---8---8--10--10--
D--------------------------------------------------------------------------

Riff C:
   but I lied       and i tried    but I always seem to he-si-tate
D-------------------------------------------------------------------------
A-------------------------------------------------------------------------
F-------------------------------------------------------------------------
C---5-5-5-5----------8-8-8-8-------10-10-10-10-----------12-10--9---------
G---3-3-3-3(muted)---6-6-6-6-------8--8--8--8------------10-10-10---------
D-------------------------------------------------------------------------

Riff A:
But something’s wrong, inside my heart, in the name of glory yeah
D-------------------------------------------------------------------------
A-------8-------6-------9-------8--------8--------9--------11--------11---
F-----5---5---5---5---7---7---7---7----8---8----8---8----8----8----8------
C---6-------6-------8-------8-------10-------10-------10--------10--------
G-------------------------------------------------------------------------
D-------------------------------------------------------------------------

  She don’t care to much for moonlight sun
D--------------------------------------------------------------
A-------8-------6------6---------------------------------------
F-----5---5---5------4---4---4---5--5-----------(5)-(7)--------
C---6-------6------5-------5----------5-------(5)--------------
G---------------------------------------6---(6)----------------
D-----------------------------------------8-------------------- repeat riff A twice

solo (couldn't figure that out!)

Riff C*:
   but I lied       and i tried    but I always seem to he-si-tate,he-si-tate
D---------------------------------------------------------------------------
A---------------------------------------------------------------------------
F---------------------------------------------------------------------------
C---5-5-5-5----------8-8-8-8-------10-10-10-10-----------12-10--9--13-11-10-
G---3-3-3-3(muted)---6-6-6-6-------8--8--8--8------------10-10-10--11-11-11-
D---------------------------------------------------------------------------

Riff A* (moved 1 fret up)
  But something’s wrong, inside my heart, in the name of glory yeah
D--------------------------------------------------------------------------
A------9-------7-------10-------9--------9--------10--------12--------12---
F----6---6---6---6---8----8---8---8----9---9----9----9----9----9----9------
C--7-------7-------9--------9-------11-------11--------11--------11--------
G--------------------------------------------------------------------------
D--------------------------------------------------------------------------
  
  She don’t care to much for moonlight sun
D---------------------------------------------------------
A------9-------7------7-----------------------------------
F----6---6---6------5---5---5---6---6------------(6)-(8)--
C--7-------7------6-------6-----------6--------(6)--------
G---------------------------------------7----(7)----------
D------------------------------------------9--------------


Riff A*:
  ooooohhhhh………………………………………………………………………………………………………………………………………………………………
D--------------------------------------------------------------------------
A------9-------7-------10-------9--------9--------10--------12--------12---
F----6---6---6---6---8----8---8---8----9---9----9----9----9----9----9------
C--7-------7-------9--------9-------11-------11--------11--------11--------
G--------------------------------------------------------------------------
D--------------------------------------------------------------------------

  She don’t care to much for moonlight sun
D--------------------------------------------------------
A------9-------7------7----------------------------------
F----6---6---6------5---5---5---6---6-----------(6)-(8)--
C--7-------7------6-------6-----------6-------(6)--------
G---------------------------------------7---(7)----------
D-----------------------------------------9-------------- repeat Riff A* 2.

I think that's kinda it...... any corrections or comments, e-mail me:
[email protected]


Текст, аккорды и табулатура для песни "Glory", исполняет "Dizzy Mizz Lizzy".
Используемые в песне аккорды можно найти в разделе Как брать аккорды. Аккорды для шестиструнной гитары. Другие песни можно найти на нашем сайте, воспользовавшись алфавитным указателем вверху страницы.


Слушать онлайн Glory


Dizzy Mizz LizzyGlory на Яндекс.Музыке


 
Ошибка в тексте? Выделите ошибку и нажмите Ctrl+Enter