The Game-Disturbed
The Sickness

Tune down 1 half step:
Eb Ab Db Gb Bb Eb

bb = bend with whammy pedal


Intro: keyboards and eletronics

Verse: Riff A w/ delay x3

... do you think that we...

e-12------------13-----------12---------------------15------------
b-----------------------------------------15----------------------
g-----------------------------------------------------------------
d-----------------------------------------------------------------
a-----------------------------------------------------------------
e-----------------------------------------------------------------

Interlude: Fig 1.

e-----------------------------------------------------------------
b-----------------------------------------------------------------
g--------------------------10-------------------------------------
d--------------------------10---------------------------------3---
a-2------------2------------8---------5h7---------------------3---
e-0-------0-0--0--------0-0-------0-0-----0-0-0-0-3h5-0-0-0-0-1---
         pm--|         |---|     |---|   |-------|   |-------|

e-----------------------------------------------------------------
b-----------------------------------------------------------------
g--------------------------10-----------------------------3-------
d--------------------------10-----------------------------3-------
a-2------------2------------8---------5h7-----------------1-------
e-0-------0-0--0--------0-0-------0-0-----0-0-0-0-3h5-0-0---------
         pm--|         |---|     |---|   |-------|   |---|

Chorus: x4

e-----------------------------------------------------------------
b-----------------------------------------------------------------
g-----------------------------------------------------------------
d-----------------------------------------------------------------
a-----------------------------------------------------------------
e-0-0-0-------0-----0-----0-0-0---0-0-0-------0-----0-----0-0-0---

Gtr 2. w/ whammy pedal set up 2 octaves

e-------------------------12bb------------------------------------
b-----------------------------------------------------------------
g-----------------------------------------------------------------
d-----------------------------------------------------------------
a-----------------------------------------------------------------
e-----------------------------------------------------------------

Bridge:

e-------12-------------------12------(12)--0---------------------
b-------15b------------------15b-----(15)--0---6-----------------
g-----------------------------------------------8b----------------
d-----------------------------------------------------------------
a-----------------------------------------------------------------
e-0------------1---1---0------------------------------------------

e-------12-------------------12------(12)--0---3-----------------
b-------15b------------------15b-----(15)--0---3-----------------
g-----------------------------------------------------------------
d-----------------------------------------------------------------
a-----------------------------------------------------------------
e-0------------1---1---0------------------------------------------

x4
e-----------------------------------------------------------------
b-----------------------------------------------------------------
g-----------------------------------------------------------------
d-----------------------------------------------------------------
a-2------------3---3---2------------------------------------------
e-0------------1---1---0------------------------------------------

Outro:

e-----------------------------------------------------------------
b-----------------------------------------------------------------
g-----------------------------------------------------------------
d-----------------------------------------------------------------
a-2-2---2----------------2-2---2----------------2-2---2-----------
e-0-0---0-----0---0---0--0-0---0-----0---0---0--0-0---0-----0---0-

e-----------------------------------------------------------------
b-----------------------------------------------------------------
g-----------------------------------------------------------------
d-----------------------------------------------------------------
a------------------------2-2---2----------------2-2---2-----------
e-0-0---0-----0---0---0--0-0---0-----0---0---0--0-0---0-----0---0-

e-----------------------------------------------------------------
b-----------------------------------------------------------------
g-----------------------------------------------------------------
d-----------------------------------------------------------------
a-2-2---2-----2---2---2--2-2---2-----2---2---2--2-2---2-----2---2-
e-0-0---0-----0---0---0--0-0---0-----0---0---0--0-0---0-----0---0-

e-----------------------------------------------------------------
b-----------------------------------------------------------------
g-----------------------------------------------------------------
d-----------------------------------------------------------------
a-2-2---2-----2---2---2--2-2---2-----2---2---2--2-2---2-----2---2-
e-0-0---0-----0---0---0--0-0---0-----0---0---0--0-0---0-----0---0-

that’s all

this song is alright, there’s just better disturbed songs

trevor jones
[email protected]


=====Song: The Game
Band: Disturbed
Tabbed by: GuitarDude570
This is probably my favorite song of Disturbed.  There were 3 requests for 
this, so I hope to see at least 3 ratings.  Make sure you listen to the 
song while you learn it because there's a few parts that you won't know 
what they are until you actually listen for it.

Dropped C# Tuning:
C#-G#-C#-F#-A#-D#

Tempo: 132

Tab key:
	P.M.= Palm Mute
	   h= Hammer On
	  /^= Bend
	   = Slide Down


Backround 1 (Joins in the backround after 4 measures of singing.)

|12--12--12--12--12--12--12--12--|13--13--13--13--13--13--13--13--|
|--------------------------------|--------------------------------|
|--------------------------------|--------------------------------|
|--------------------------------|--------------------------------|
|--------------------------------|--------------------------------|
|--------------------------------|--------------------------------||12--12--12--12--12--12--12--12--|----------------15--15--15--15--|
|--------------------------------|15--15--15--15------------------|
|--------------------------------|--------------------------------|
|--------------------------------|--------------------------------|
|--------------------------------|--------------------------------|
|--------------------------------|--------------------------------|Main Riff
         P.M.        P.M.         P.M.    P.M.--|     P.M.--|
|--------------------------------|--------------------------------|
|--------------------------------|--------------------------------|
|--------------------------------|--------------------------------|
|2-----------2-----------3-------|----0h2---------------------3---|
|2-------2-2-2-------2-2-3-------|2-2-----2-2-2-2-----2-2-2-2-3---|
|2-------2-2-2-------2-2-3-------|2-2-----2-2-2-2-0h2-2-2-2-2-3---|


         P.M.        P.M.         P.M.    P.M.--|     P.M
|--------------------------------|--------------------------------|
|--------------------------------|--------------------------------|
|--------------------------------|------------------------3-------|
|2-----------2-----------3-------|----0h2-----------------3-------|
|2-------2-2-2-------2-2-3-------|2-2-----2-2-2-2-----2-2-1-------|
|2-------2-2-2-------2-2-3-------|2-2-----2-2-2-2-0h2-2-2-3-------|Verse Riff

|--------------------------------|--------------------------------|
|--------------------------------|--------------------------------|
|4-------------------------------(4)------------------------------|
|2-------------------------------(2)------------------------------|
|2-------------------------------(2)------------------------------|
|2-------------------------------(2)------------------------------||--------------------------------|--------------------------------|
|--------------------------------|--------------------------------|
(4)------------------------------(4)------------------------------|
(2)------------------------------(2)------------------------------|
(2)------------------------------(2)------------------------------|
(2)------------------------------(2)------------------------------|Bridge Riff

|--------------------------------|
|--------------------------------|
|--------------------------------|
|2-2-2-------2-----2-----2-2-2---|
|2-2-2-------2-----2-----2-2-2---|
|2-2-2-------2-----2-----2-2-2---|Fill 1
         P.M.        P.M.
|--------------------------------|--------------------0--------tied on
|--------------------------------|--------------------5--------tied on
|--------------------------------|--------------------4--------tied on
|2-----------2-----------3-------(3)------------------------------|
|2-------2-2-2-------2-2-3-------(3)------------------------------|
|2-------2-2-2-------2-2-3-------(3)------------------------------|Interlude Riff (Tricky to go from 2 to 15.)
|--------12----------------------|--------12----------------------|
|--------15/^full+half-----------|--------15/^full+half---5/^half-|
|--------------------------------|--------------------------------|
|----------------X-2-2-3---0-3---|--------------------2-----------|
|----------------X-2-2-3---0-3---|--------------------2-----------|
|2---------------X-2-2-3---0-3---|2-------------------2-----------|Backround 2

|--------------------------------|22/^full^^^^release----------|
|------------------------17------|--------------------------------|
|--------------------------------|--------------------------------|
|--------------------------------|--------------------------------|
|--------------------------------|--------------------------------|
|--------------------------------|--------------------------------|End Riff
             P.M.------------|    P.M.------------------------|
|--------------------------------|--------------------------------|
|--------------------------------|--------------------------------|
|--------------------------------|--------------------------------|
|2-2-2---------------------------|--------------------------------|
|2-2-2-------2-------2-------2---|2-2-2-------2-------2-------2---|
|2-2-2-------2-------2-------2---|2-2-2-------2-------2-------2---|


             P.M.------------|    P.M.------------------------|
|--------------------------------|--------------------------------|
|--------------------------------|--------------------------------|
|--------------------------------|--------------------------------|
|2-2-2---------------------------|--------------------------------|
|2-2-2-------2-------2-------2---|2-2-2-------2-------2-------2---|
|2-2-2-------2-------2-------2---|2-2-2-------2-------2-------2---||--------------------------------|--------------------------------|
|--------------------------------|--------------------------------|
|--------------------------------|--------------------------------|
|2-2-2-------2-------2-------2---|2-2-2-------2-------2-------2---|
|2-2-2-------2-------2-------2---|2-2-2-------2-------2-------2---|
|2-2-2-------2-------2-------2---|2-2-2-------2-------2-------2---||--------------------------------|--------------------------------|
|--------------------------------|--------------------------------|
|--------------------------------|--------------------------------|
|2-2-2-------2-------2-------2---|2-2-2-------2-------2-------2---|
|2-2-2-------2-------2-------2---|2-2-2-------2-------2-------2---|
|2-2-2-------2-------2-------2---|2-2-2-------2-------2-------2---||--------------------------------|
|--------------------------------|
|--------------------------------|
|2-2-2---------------------------|
|2-2-2---------------------------|
|2-2-2---------------------------|Song Sequence:
	Techno Intro
	4 measures of singing
Backround 1 (3x)
Main Riff (2x)
Verse Riff (1x)
Main Riff (2x)
Bridge Riff (8x)
Fill 1 (1x)
Verse Riff (1x)
Main Riff (2x)
Bridge Riff (8x)
	Techno Interlude
Interlude Riff (8x)
	Phat Bass
	Sudden Pause
Bridge Riff (8x) with Backround 2 (4x)
End Riff (1x)

E-mail [email protected] for questions or comments.
====


Текст, аккорды и табулатура для песни "The Game", исполняет "Disturbed".
Используемые в песне аккорды можно найти в разделе Как брать аккорды. Аккорды для шестиструнной гитары. Другие песни можно найти на нашем сайте, воспользовавшись алфавитным указателем вверху страницы.


Слушать онлайн The Game


DisturbedThe Game на Яндекс.Музыке


 
Ошибка в тексте? Выделите ошибку и нажмите Ctrl+Enter