Name: Ryan Farris

Tabs: Artist: Disturbed
Song: Stupify
Tuning: D-A-D-G-B-E
Tabbed by: Ryan Farris

you know you want this tab.  this is one of the tightest songs ever. 
and im the first one to tab it.
if you have any questions or changes email me [email protected], or 
ICQ#-41453101
-=-=-=-=-=-=-=-=-=-=-=-=-=-=-=-=-=-=-=-=-=-=-=-=-=-=-=-=-=-
___________________________________________________________
  Intro (Riff A)
*Guitar 1:*
|------------------------------|------------------------------|
|------------------------------|------------------------------|
|-7-5-7-8--7-5-7-8-8--7-5-8-8--|-7-5-7-8---7-5-7-8-8--7-5-8-8-|
|------------------------------|------------------------------|
|------------------------------|------------------------------|
|------------------------------|------------------------------|

*Guitar 2:*
|------------------------------|------------------------------|
|------------------------------|------------------------------|
|-3----------------------------|-3----------------------------|
|-1--0-0-0-0--0-0-0-3-0-0-0----|-1---0-0-0-0--0-0-0----1---0--|
|-1--0-0-0-0--0-0-0-3-0-0-0----|-1---0-0-0-0--0-0-0--3---3----|  
|----0-0-0-0--0-0-0-3-0-0-0----|-----0-0-0-0--0-0-0-----------|
 P.M.===================|      P.M.=============|
*Guitar 1: *
  Riff A 3x

*Guitar 2:*
  Riff A 3x
_____________________________________________________________
  Verse: (Riff B)
*Guitar 1:*
|-10-------------10-------------|-10-------------10------------|
|-----11--10--------11---10-----|----11--10---------11--10-----|
|-------------------------------|------------------------------|
|-------------------------------|------------------------------|
|-------------------------------|------------------------------|
|-------------------------------|------------------------------|

  (Riff B1)
*Guitar 2:*
|-------------------------668---|-------------------------668---|
|--------------------666--------|--------------------666--------|
|-------------------------------|-------------------------------|
|-0-------0-------0-------------|-0-------0--------0------------|
|-0-------0-------0-------------|-0-------0--------0------------|
|-0-------0-------0-------------|-0-------0--------0------------|
 P.M.============|               P.M.==============|
  Repeat (1x)

*Guitar 1:*
  Riff B (7x)

*Guitar 2:*
  1st Time Riff B1 (6x)
  Then 
||-----------------------6-6-8-|-----------------5-5-5-5-5-5-5-||
||----------------6-6-6--------|-----------------4-4-4-4-4-4-4-||
||-----------------------------|-----------------2-2-2-2-2-2-2-||
||-0-----0-----0---------------|-0-----0-----0-----------------||
||-0-----0-----0---------------|-0-----0-----0-----------------||
||-0-----0-----0---------------|-0-----0-----0-----------------||

_____________________________________________________________

Chorus:

*Guitar 1:* RiffA 4x
______________________________________________________
*Guitar 2:* Rhythm Fill1                                                                    
||------------|------------|------------|------------|
||------------|------------|------------|------------|         
||------------|------------|------------|------------|
||-0----------|------------|------------|-------x-x--|
||-0----------|------------|------------|-------x-x--|
||-0----------|------------|------------|-------x-x--|  
Let Ring ~ ~ ~ ~ ~ ~ ~ ~ ~ ~ ~ ~ ~ ~ ~ ~ ~ ~ ~ ~ ~
                                                                                                             
||---------------------------|------------5555555-|              
||---------------------------|------------4444444-|              
||---------------------------|------------2222222-|              
||-0---0---0---0-------------|-0---0---0----------|              
||-0---0---0---0-------------|-0---0---0----------|              
||-0---0---0---0-------------|-0---0---0----------|              ||
P.M. ==========================|     
    Play 3x                                            
______________________________________________________
_______________________________________________________________
Interlude
*Guitar 2*
||---------------------------|---------------------------||
||---------------------------|---------------------------||
||---------------------------|---------------------------||
||-0-----0-----0-------------|-0-----0-----0-------------||
||-0-----0-----0-------------|-0-----0-----0-------------||
||-0-----0-----0------000000-|-0-----0-----0------000000-||
(Repeat 3x)
*Guitar1: Go Back to RiffB in Verse*
*Guitar2: Go Back to RiffB in Verse*

Interlude2
(RiffC)
w/sitar effect
||-----------------------------|-------------------------------||
||-----------------------------|-------------------------------||
||------7---------8---------8--|------7----------8----------8--||
||-0---------0---------0-------|--0---------0-----------0------||
||-----------------------------|-------------------------------||
||-----------------------------|-------------------------------||
Let Ring~ ~ ~ ~ ~ ~ ~ ~ ~ ~ ~ ~ ~ ~ ~ ~ ~ ~ ~ ~ ~ ~ ~ ~ ~ ~ ~ ~
Repeat(1x)
_____________________________________________________________
Bridge:

*Guitar2:*

||----------------------------|-------------------------------||
||----------------------------|-------------------------------||
||----------------------------|-------------------------------||
||-0---------3---------0------|--3---------0---------1--------||
||-0---------3---------0------|--3---------0---------1--------||
||-0---------3---------0------|--3---------0---------1--------||

||----------------------------|--------------------------------||
||----------------------------|--------------------------------||
||----------------------------|--------------------------------||
||-0--------3----------0------|--3---------0---------12-||
||-0--------3----------0------|--3---------0---------12-||
||-0--------3----------0------|--3---------0---------12-||

||----------------------------|-----------------------------||
||----------------------------|-----------------------------||
||----------------------------|-----------------------------||
||-0--------3----------0------|--3---------0---------1------||
||-0--------3----------0------|--3---------0---------1------||
||-0--------3----------0------|--3---------0---------1------||

||----------------------------|--------------------------||
||----------------------------|--------------------------||
||----------------------------|--------------------------||
||-0--------3----------0------|--3---------1---1---1---0-||
||-0--------3----------0------|--3---------1---1---1---0-||
||-0--------3----------0------|--3---------1---1---1---0-||

___________________________________________________________
Interlude:
*Guitar1:*
(RiffA)
 
*Guitar2:*
_____________________________________________________
Rhythm Fill2                                                            
||------------------|-------------------||          ||
||------------------|-------------------||          ||
||-3----------------|-------------------||          ||
||-3--0000--0000000-|--1--0000--0000000-||          ||
||-1--0000--0000000-|--1--0000--0000000-||          || 
||----0000--0000000-|--1--0000--0000000-||          ||
 P.M.==============      ==============             ||
                                                    ||
____________________________________________________||

||------------------------------|---------------------------||
||------------------------------|---------------------------||
||-3----------------------------|---------------------------||
||-1----0-0-0-0--0-0-0-0-0-0-0--|-1--0-0-0-0--0-0-0-0-0-0-0-||
||-1----0-0-0-0--0-0-0-0-0-0-0--|-1--0-0-0-0--0-0-0-0-0-0-0-||
||------0-0-0-0--0-0-0-0-0-0-0--|-1--0-0-0-0--0-0-0-0-0-0-0-||
          P.M.=================    ======================
_______________________________________________________________
Chorus:

*Guitar1:*
RiffA (2x)

*Guitar2:*
Rhythm Fill2

*Guitar2:*

||-----------------------------|-------------------------------||
||-----------------------------|-------------------------------||
||-3---------------------------|-------------------------------||
||-1---0-0-0-0--0-0-0-0-0-0-0--|-1--0-0-0-0-1---0-0-0-0-1--0-0-||
||-1---0-0-0-0--0-0-0-0-0-0-0--|-1--0-0-0-0-1---0-0-0-0-1--0-0-||
||-----0-0-0-0--0-0-0-0-0-0-0--|-1--0-0-0-0-1---0-0-0-0-1--0-0-||
   P.M.=======  =============       =======     =======    ===
_________________________________________________________
Outro:

*Guitar2:*

||-------------------------------|-----------------------------||
||-------------------------------|-----------------------------||
||-------------------------------|-----------------------------||
||-0-0--0-0--0-0--0-3-0---1~0----|-1--0-0-0-0-0--0-0-0---1~0---||
||-0-0--0-0--0-0--0-3-0--3-----3-|-1--0-0-0-0-0--0-0-0--3----3-||
||-0-0--0-0--0-0--0-3-0----------|-1--0-0-0-0-0--0-0-0---------||

*Guitar2:*
____________________________________________________________
Rhythm Fill3                                                                                                                       
||
||------------------------|------------------------||      ||
||------------------------|------------------------||      ||
||------------------------|------------------------||      ||
||-0-0--0-0--0-0--0301300-|-0-0--0-0--0-0--0301300-||      ||
||-0-0--0-0--0-0--0301300-|-0-0--0-0--0-0--0301300-||      ||
||-0-0--0-0--0-0--0301300-|-0-0--0-0--0-0--0301300-||      ||
P.M.================================================       ||
___________________________________________________________||

*Guitar2:*
(Rhythm Fill3)

||----------------------------------------|--------------------||
||----------------------------------------|--------------------||
||----------------------------------------|--------------------||
||-0-0----0-0----0-0----0-3-0-1-3-0-0-|---0-0-----------0-0----||
||-0-0----0-0----0-0----0-3-0-1-3-0-0-|---0-0-----------0-0----||
||-0-0----0-0----0-0----0-3-0-1-3-0-0-|---0-0-----------0-0----||

________________________________________________________________
-=-=-=-=-=-=-=-=-=-=-=-=-=-=-=-=-=-=-=-=-=-=-=-=-=-=-=-=-=-=-
This was really my first tab to do for puttin up on the web so sorry if 
its screwed up
I know it looks screwed up but its all there I would just say dont play 
any of the Guitar 1 crap
its barely noticealbe in the song.  The order is easy to figure out if 
you listen to the song and
memorize the riffs.  please if you have any modifications let me know 
by e-mail or ICQ.
To make up for how crappy of a tab job i did here are the lyrics...

Lyrics:
bringing  you another disturbing  creation from th emind of one sick 
animal who cant tell the
difference and gets stupified
and ive been waitin my whole life for just one f**k 
and all i needed was just one f**k
How can you say you dont give a f**k
i find my self stupified comin back again
all i wanted was just one f**k 
one tiny little innocent f**k
and when i feel im s**t out of luck
i find myself stupified comin back again
why do you like playing around with my narrow scope of reality?
i can feel it all start slippin 
i think im breakin down
why do you like playing around with my narrow scope of reality?
I can feel it all start slippin  away 

see but i dont get it 
dont you think maybe we can put it on credit?
dont you think you can take control when i dont let it?
i get stupified
its all the same  you say “live with it”
but i dont get it 
dont you think maybe we can put it on credit?
dont you think you can take control when i dont let it?
I get stupified
I get stupified

And all the people in the left wing...F**K
and all the people in the right wing...F**K
and all the people in the underground...F**K
i find myself stupified comin back again
all the people in the high rise...F**K
and all the people in the projects...F**K
and all la hente in the bario...F**K
i find myself stupified comin back again
why do you like playin around with my narrow scope of reality?
i can feel it all start slippin 
i think im breakin down
why do you like playin around with my narrow scope of reality?
i can feel it all start slippin away 

see but i dont get it 
dont you think maybe we could put on credit?
dont you think that you can take control if i dont let it?
i get stupified
its all the same you say, “live with it”
but i dont get it
dont you think maybe we could put it on credit
dont you think you can take control when i wont let it?
i get stupified
i get stupified

if i say.................................
if i say.................................
and dont deny me 
no baby now dont deny me
and darlin dont be afraid

but i dont get it 
dont you think maybe we could put it on credit
dont you think you could take control if i would not let it
i get stupified

look in my face stare in my soul
i begin to stupify..Rah!
look in my face stare in my soul
look in my face stare in my soul
look in my face!
look in my face!
look in my face 
i begin to stupify...Rah! 



Текст, аккорды и табулатура для песни "Stupify", исполняет "Disturbed".
Используемые в песне аккорды можно найти в разделе Как брать аккорды. Аккорды для шестиструнной гитары. Другие песни можно найти на нашем сайте, воспользовавшись алфавитным указателем вверху страницы.


Слушать онлайн Stupify


DisturbedStupify на Яндекс.Музыке


 
Ошибка в тексте? Выделите ошибку и нажмите Ctrl+Enter