Name: Billy Donovan

Tabs: #----------------------------------PLEASE 
NOTE--------------------------------#
#This file is the author's own work and represents their interpretation 
of the#
#song. You may only use this file for private study, scholarship, or 
research.#
#-----------------------------------------------------------------------------#

Author/Artist: Disturbed
Title: Stupify
Album: The Sickness
Transcribed by: Billy Donovan and Adrian Brown
Email: [email protected]

This song is in drop tuning DADGBE

Very easy song to play

Also coming soon is Down With The Sickness!!!

(THIS IS THE FIRST EXCLUSIVE DISTURBED TAB!)


INTRO
-----------------------------------------------------------------
-----------------------------------------------------------------
-2---------------------------------------------------------------
-2--x-0----------------------------------------------------------
-0--x-0----------------------------------------------------------
----x-0--x0-x1-x0-x3-x1-x0-x1-----------------------------------------------------------------------------------------------------
                                                                        
VERSE
------------------------------------|----------------------------
--------------11----------------8---|----------------------------
--------10-10----10---------7-7---7-|----------------------------
-x-x-x---------------x-x-x----------|--0-------------------------
-x-x-x---------------x-x-x----------|--0--let ring for a little--
-x-x-x---------------x-x-x----------|--0-------------------------
(Do that a couple of times then palm mute open)


CHORUS is the same as INTRO    
            

This is the part right after the chorus then just play the 1st verse 
again for the 2nd verse
-----------------------------------------------------------------
-----------------------------------------------------------------
-----------------------------------------------------------------
-x-x-x--xxxxxxxx-------------------------------------------------
-x-x-x--xxxxxxxx-------------------------------------------------
-x-x-x--xxxxxxxx-------------------------------------------------

BRIDGE (De Flaque Hey, or whaveter)

-----------------------------------------------------------------
-----------------------------------------------------------------
----7-----7--8---------------------------------------------------
-----------------------------------------------------------------
--5---5----5-----------------------------------------------------
-----------------------------------------------------------------

PRE OUTRO (And don't deny me, no baby now, don't deny me)

-----------------------------------------------------------------
-----------------------------------------------------------------
-----------------------------------------------------------------
-0-3--0-3--03----------------------------------------------------
-0-3--0-3--03----------------------------------------------------
-0-3--0-3--03----------------------------------------------------                                                                 
PRE OUTRO 2 (And darling don't be afraid)

-----------------------------------------------------------------
-----------------------------------------------------------------
-2---------------------------------------------------------------
-2-x-0------------------------1-x-0------------------------------
-0-x-0------------------------1-x-0------------------------------
---x-0--x0-x1-x0-x3-x1-x0-x1--1-x-0--x0-x1-x0-x3-x1-x0-x1--------

Chorus once more then OUTRO riff

OUTRO (Look in my face, stare in my soul, I begin to stupify)
     
----------------------I------------------------------------------
----------------------I------------------------------------------
----------------------I------------------------------------------
-1-xx-1-xx-1-xx-1-xx--I----xx-xx-xx-xx---------------------------
-1-xx-1-xx-1-xx-1-xx--I----xx-xx-xx-xx-----------x5--------------
-1-xx-1-xx-1-xx-1-xx--I----xx-xx-xx-xx--x0-x1-x0----x1-x0-x1-----
(Do this part once then)          Do this for the final riff

Lyrics:
I've been waiting my hole life for just one
And all I needed was just one
How can you say that you dont give a 
I find myself stupified, coming back again
All I wanted was just one
One tiny little innocent
And when I feel like I'm shit out of
I find myself stupified, coming back again
Why, do you think playing around with
My narrow scope of reality
I can feel it all start slippin'
I think Im breaking down
Why do you like playing around with
My narrow scope of reality
I can feel it all start slippin' away

See but I don't get it
Don't you think maybe we can put it on credit?
Don't you think it can take control when I don't
let it?
I get stupified
It's all the same you say, live with it
But I don't get it
Don't you think maybe we can put it on credit?
Dont you think it can all take control when I don't 
let it?
I get stupified

All the people in the left wing
And all the people in the right wing
And all the people in the underground
I find myself stupified, coming back again
All the people in the high rise
And all the people in the projects
And all la hente in the barrio (rock)
I find myself stupified, coming back again

Don't deny me
Oh baby now, don't deny me
And darling don't be afraid
Look in my face stare in my soul, i begin to stupify


Текст, аккорды и табулатура для песни "Stupify", исполняет "Disturbed".
Используемые в песне аккорды можно найти в разделе Как брать аккорды. Аккорды для шестиструнной гитары. Другие песни можно найти на нашем сайте, воспользовавшись алфавитным указателем вверху страницы.


Слушать онлайн Stupify


DisturbedStupify на Яндекс.Музыке


 
Ошибка в тексте? Выделите ошибку и нажмите Ctrl+Enter