Rise-Disturbed
Believe

Drop Db:
Db Ab Db Gb Bb Eb


Intro: Fig. 1 w/ chorus/vibrato effect

gtr. 1

e-------------------------------------------------------------------
b-------------------------------------------------------------------
g-------------------------------------------------------------------
d-------------------------------------------------------------------
a-------------------------------------------------------------------
d-10h12-0-12-0-12-0-12-12-10h12-10-10h12-0-12-0-12-0-12-12-10h12-10-

e-------------------------------------------------------------------
b-------------------------------------------------------------------
g-------------------------------------------------------------------
d-------------------------------------------------------------------
a-------------------------------------------------------------------
d-10h12-0-12-0-12-0-12-12-10h12-10-6-6-6-6-6-6-/-15-15-15-10-10-10--

then,

gtr. 1 and Fig. 1a (gtr. 2) (gtr. 1 plays lower notes)

e-------------------------------------------------------------------
b-------------------------------------------------------------------
g-------------------------------------------------------------------
d-10h12-0-12-0-12-0-12-12-10h12-10-10h12-0-12-0-12-0-12-12-10h12-10-
a-------------------------------------------------------------------
d-10h12-0-12-0-12-0-12-12-10h12-10-10h12-0-12-0-12-0-12-12-10h12-10-

e-------------------------------------------------------------------
b-------------------------------------------------------------------
g------------------------------------------------10-10-10-----------
d-10h12-0-12-0-12-0-12-12-10h12-10-6-6-6-6-6-6-/----------10-10-10--
a-------------------------------------------------------------------
d-10h12-0-12-0-12-0-12-12-10h12-10-6-6-6-6-6-6-/-15-15-15-10-10-10--

Verses: (V2&3 play Fig. 1a too)
x3
e-------------------------------------------------------------------
b-------------------------------------------------------------------
g-------------------------------------------------------------------
d-------------------------------------------------------------------
a-10h12---12---12---12-12-10h12-10-10h12---12---12---12-12-10h12-10-
d-10h12-0-12-0-12-0-12-12-10h12-10-10h12-0-12-0-12-0-12-12-10h12-10-

e-------------------------------------------------------------------
b-------------------------------------------------------------------
g-------------------------------------------------------------------
d-------------------------------------------------------------------
a-10h12---12---12---12-12-10h12-10-6-6-6-6-6-6-/-15-15-15-10-10-10--
d-10h12-0-12-0-12-0-12-12-10h12-10-6-6-6-6-6-6-/-15-15-15-10-10-10--

x2, pm throughout
e--------------------------------------------------------------
b--------------------------------------------------------------
g--------------------------------------------------------------
d--------------------------------------------------------------
a-------0-----------------0------------0-----------------0-----
d-0-0-0-0-------------0-0-0------0-0-0-0-------------0-0-0-----

Chorus:

e-------------------------------------------
b-------------------------------------------
g-7----7--10-10--1010--7----7--10-10--1010--
d-7----7--10-10--1010--7----7--10-10--1010--
a-5----5---8--8---8-8--5----5---8--8---8-8--
d-------------------------------------------

e---------------------------------------------
b---------------------------------------------
g-7----7--10-10--1010-------------------------
d-7----7--10-10--1010-------------------------
a-5----5---8--8---8-8--7----7-------------5---
d----------------------7----7--7-7-7-7-7--5---

e-------------------------------------------
b-------------------------------------------
g-7----7--10-10--1010--7----7--10-10--1010--
d-7----7--10-10--1010--7----7--10-10--1010--
a-5----5---8--8---8-8--5----5---8--8---8-8--
d-------------------------------------------

e---------------------------------------------
b---------------------------------------------
g-7----7--10-10--1010-------------------------
d-7----7--10-10--1010-------------------------
a-5----5---8--8---8-8--7----7-------------10--
d----------------------7----7--7-7-7-7-7--10--

Bridge:

e-------------------------------------------
b-------------------------------------------
g-------------------------------------------
d--------------------------------------12---
a-12------10---12-10---12------10---12------
d--8-------------------12-------------------

e-------------------------------------------
b-------------------------------------------
g-------------------------------------------
d-------------------------------------------
a-12------10---12-10---12------10---12------
d--8-------------------12--------------12---

e-------------------------------------------
b-------------------------------------------
g-------------------------------------------
d--------------------------------------12---
a-12------10---12-10---12------10---12------
d--8-------------------12-------------------

1st ending, pm
e-----------------------------------------------
b-----------------------------------------------
g-----------------------------------------------
d-----------------------------------------------
a-3-3-3-3-3-3-3-3-3-3-3-3-8-8-8-8-8-8-8-8-8-----
d-3-3-3-3-3-3-3-3-3-3-3-3-8-8-8-8-8-8-8-8-8-----

2nd ending, pm
e-----------------------------------------------
b-----------------------------------------------
g-----------------------------------------------
d-----------------------------------------------
a-3-3-3-3-3-3-3-3-3-3-3-3-8-8-8-8-8-8-8-8-8-8-8-
d-3-3-3-3-3-3-3-3-3-3-3-3-8-8-8-8-8-8-8-8-8-8-8-

Interlude:

x3
e-------------------------------------------------
b-------------------------------------------------
g-------------------------------------------------
d-------------------------------------------------
a-------------------------------------------------
d-0---0---3-1-0---0---1-3-0---0---3-1-0-1-0-1-0-3-

e-------------------------------------------------
b-------------------------------------------------
g-------------------------------------------------
d-------------------------------------------------
a-------------------------------------------------
d-0---0---3-1-0---0---1-3-0---0---3-1-0-1-0-15---

x3
e-------------------------------------------------
b-------------------------------------------------
g-------------------------------------------------
d-------------------------------------------------
a-------------------------------------------------
d-0---0---3-1-0---0---1-3-0---0---3-1-0-1-0-1-0-3-

e-------------------------------------------------
b-------------------------------------------------
g-------------------------------------------------
d-------------------------------------------------
a-------------------------------------------------
d-0---0---3-1-0---0---1-3-0---0---3-1-0-1-0-15---

e-------------------------------------------------
b-------------------------------------------------
g-------------------------------------------------
d-------------------------8-8-8-8-8-8-8-8-8-10----
a-8-8-8-8-8-8-8-8-8-8-8-8-8-8-8-8-8-8-8-8-8-10----
d-8-8-8-8-8-8-8-8-8-8-8-8-8-8-8-8-8-8-8-8-8-10----
3rd ending
e-----------------------------------------------
b-----------------------------------------------
g-----------------------------------------------
d-------------------------8-8-8-8-8-8-8-8-8-10--
a-3-3-3-3-3-3-3-3-3-3-3-3-8-8-8-8-8-8-8-8-8-10--
d-3-3-3-3-3-3-3-3-3-3-3-3-8-8-8-8-8-8-8-8-8-10--

after 3rd chorus

x3
e-------------------------------------------------
b-------------------------------------------------
g-------------------------------------------------
d-------------------------------------------------
a-8-8-8-8-8-8---8-8-8-8-8-------------------------
d-8-8-8-8-8-8---8-8-8-8-8-0-0-0-0-0-0---0-0-0-0-0-

e-------------------------------------------------
b-------------------------------------------------
g-------------------------------------------------
d-------------------------------------------------
a-3-3-3-3-3-3-3-3-3-3-3-3-8-8-8-8-8-8-8-8-8-8-8-8-
d-3-3-3-3-3-3-3-3-3-3-3-3-8-8-8-8-8-8-8-8-8-8-8-8-


that’s all

*from the Disturbed tab book*

trevor jones
[email protected]


Текст, аккорды и табулатура для песни "Rise", исполняет "Disturbed".
Используемые в песне аккорды можно найти в разделе Как брать аккорды. Аккорды для шестиструнной гитары. Другие песни можно найти на нашем сайте, воспользовавшись алфавитным указателем вверху страницы.


Слушать онлайн Rise


DisturbedRise на Яндекс.Музыке


 
Ошибка в тексте? Выделите ошибку и нажмите Ctrl+Enter