There's A LOT of versions out there and this is one that basically sounds like it
and is easy to play

Disturbed
Remember  ---  Beleive
tabbed by: Hopeless

Normal Dropped D  e b g d a D

*- means plam mutted

Intro x2
e---------------------------------------------------------------------
b---------------------------------------------------------------------
g---------------------------------------------------------------------
d--0-00-5-0101-3-3535--0-00-5-0101-3-35-5-----------------------------
a--0-00-5-0101-3-3535--0-00-5-0101-3-35-5-----------------------------
D--0-00-5-0101-3-3535--0-00-5-0101-3-35-5-----------------------------
     **   ****   ****    **   ****           
e---------------------------------------------------------------------
b---------------------------------------------------------------------
g---------------------------------------------------------------------
d--0-00-5-0101-3-3535--0-00-5-0101-3-00-1-0-1-0-----------------------
a--0-00-5-0101-3-3535--0-00-5-0101-3-00-1-0-1-0-----------------------
D--0-00-5-0101-3-3535--0-00-5-0101-3-00-1-0-1-0-----------------------
     **   ****   ****    **   ****   **   *

Verse x2
e---------------------------------------------------------------------
b---------------------------------------------------------------------
g---------------------------------------------------------------------
d---------------------------------------------------------------------
a----------13---------12------------------------13--------------------
D--0-12-14----0-12-14----0-12h14-12h14--0-12-14----0-12-0-14----------

e---------------------------------------------------------------------
b---------------------------------------------------------------------
g---------------------------------------------------------------------
d---------------------------------------------------------------------
a----------13---------12------------------------13---------12-12-12---
D--0-12-14----0-12-14----0-12h14-12h14--0-12-14----0-12-14------------

Chorus
e---------------------------------------------------------------------
b---------------------------------------------------------------------
g---------------------------------------------------------------------
d--5-7-5------------5-7-5-----------5-7-5------------5-7-5------------
a-------0-7-5-3p0--------0-7-5-3p0-------0-7-5-3p0--------0-7-5-3p0---
D---------------------------------------------------------------------

e---------------------------------------------------------------------
b---------------------------------------------------------------------
g---------------------------------------------------------------------
d--3-5-3-----------3-5-3-----------5-7-5----------5-7-5-0-77-99-------
a-------0-5-3-1p0-------0-5-3-1p0-------0-7-5-3p0---------------------
D---------------------------------------------------------------------

e-------------------------------------------------------------------------
b-------------------------------------------------------------------------
g-------------------------------------------------------------------------
d--11-11-11-9-9-9-11-11-11-9-9-9-11-11-9-9--11-11-11-9-9-9-11-11-11-9-9-9-
a-------------------------------------------------------------------------
D-------------------------------------------------------------------------

e---------------------------------------------------------------------
b---------------------------------------------------------------------
g---------------------------------------9-9-9-9h11p9-12-12h14p12(hold)
d--11-11-9-9--12-12-12-12h14p12-9-9-11--------------------------------
a---------------------------------------------------------------------
D---------------------------------------------------------------------

-Verse durting interlude until real verse starts again
-Verse x1 palm muted
-Verse x1 normal (pause at end)
-Chrous x1

Interlude 
e---------------------------------------------------------------------
b---------------------------------------------------------------------
g---------------------------------------------------------------------
d-3-355555-1110-0-0-0-0-010-----------x3------------------------------
a-3-355555-1110-0-0-0-0-010-------------------------------------------
D-3-355555-1110-0-0-0-0-010-------------------------------------------
                *   * 
e---------------------------------------------------------------------
b---------------------------------------------------------------------
g---------------------------------------------------------------------
d-3-33-33333-5-55-55555-----------------------------------------------
a-3-33-33333-5-55-55555-----------------------------------------------
D-3-33-33333-5-55-55555-----------------------------------------------

e---------------------------------------------------------------------
b---------------------------------------------------------------------
g---------------------------------------------------------------------
d-0000-55-0000-33-0000---x3-------------------------------------------
a-0000-55-0000-33-0000------------------------------------------------
D-0000-55-0000-33-0000------------------------------------------------
  ****    ****    ****
e---------------------------------------------------------------------
b---------------------------------------------------------------------
g---------------------------------------------------------------------
d-0000-55-0000-303----------------------------------------------------
a-0000-55-0000-303----------------------------------------------------
D-0000-55-0000-303----------------------------------------------------
  ****    ****  *

-Chorus x1   (at the end do not 12h14p12)

Outro
e---------------------------------------------------------------------
b---------------------------------------------------------------------
g---------------------------------------------------------------------
d--5-7-5------------5-7-5-----------5-7-5------------5-7-5------------
a-------0-7-5-3p0--------0-7-5-3p0-------0-7-5-3p0--------0-7-5-3p0---
D---------------------------------------------------------------------

e---------------------------------------------------------------------
b---------------------------------------------------------------------
g---------------------------------------------------------------------
d--3-5-3-----------3-5-3-----------5-7-5----------5-7-5-0-77-99-------
a-------0-5-3-1p0-------0-5-3-1p0-------0-7-5-3p0---------------------
D---------------------------------------------------------------------

e-------------------------------------------------------------------------
b-------------------------------------------------------------------------
g-------------------------------------------------------------------------
d--------------------------(on a not d string)----------------------------
a--11-11-11-9-9-9-11-11-11-9-9-9-11-11-9-9--11-11-11-9-9-9-11-11-11-9-9-9-
D-------------------------------------------------------------------------

e---------------------------------------------------------------------
b---------------------------------------------------------------------
g---------------------------------------------------------------------
d---------------------------------------9-9-9-9h11p9-12-12h14p12(hold)
a-11-11-9-9--12-12-12-12h14p12-9-9-11---9-9-9-9------12---------------
D---------------------------------------------------------------------

e---------------------------------------------------------------------
b---------------------------------------------------------------------
g---------------------------------------------------------------------
d--0-00-5-0101-3-3535--0-00-5-0101-3-35-5---------x4------------------
a--0-00-5-0101-3-3535--0-00-5-0101-3-35-5-----------------------------
D--0-00-5-0101-3-3535--0-00-5-0101-3-35-5-----------------------------
     **   ****   ****    **   ****           

-On last time do not play the last 5

This should be about 90% exact. I've heard that some tabs have this listed as
a dropped D flat, this i alrite as well it just sounds lower. 
If you have any comments plaease e-mail me at [email protected]


Текст, аккорды и табулатура для песни "Remember", исполняет "Disturbed".
Используемые в песне аккорды можно найти в разделе Как брать аккорды. Аккорды для шестиструнной гитары. Другие песни можно найти на нашем сайте, воспользовавшись алфавитным указателем вверху страницы.


Слушать онлайн Remember


DisturbedRemember на Яндекс.Музыке


 
Ошибка в тексте? Выделите ошибку и нажмите Ctrl+Enter