Remember
Disturbed
Believe

All guitars in dropped-D tuning down one half step 
(low to high: Db Ab Db Gb Bb Eb)

Intro

Gtr. 1 (w/modulation and delay effects)

|------------(10)--------------------------------------------------|
|------------------------------------------------------------------|
|------------------------------------------------------------------|
|------------------------------------------------------------------|
|------------------------------------------------------------------|
|---(0)------------------------------------------------------------|

Gtrs. 1 and 2 (w/dist.)

|------------------------------------------------------------------|
|------------------------------------------------------------------|
|------------------------------------------------------------------|
|------------------------------------------------------------------|
|---0--0--3-8--0-0-0--3-7--0-3-0-3---0--0--3-8--0-0-0--3-7--0-3----|
|---0--0--3-8--0-0-0--3-7--0-3-0-3---0--0--3-8--0-0-0--3-7--0-3----|
P.M.   -  -    - - -  -    - - - -      -  -    - - -  -    - - 

|----|-------------------------------------------------------------|
|----|-------------------------------------------------------------|
|----|-------------------------------------------------------------|
|----|-------------------------------------------------------------|
|---3|--0--0--3-8--0-0-0--3-7--0-3-0-3--0--0--3-8--0-0-0--3-7-0--0-|
|---3|--0--0--3-8--0-0-0--3-7--0-3-0-3--0--0--3-8--0-0-0--3-7-0--0-|
P.M.-      -  -    - - -  -    - - - -     -  -    - - -  -   -  - 

|------------------------------------------------------------------|
|------------------------------------------------------------------|
|------------------------------------------------------------------|
|------------------------------------------------------------------|
|---3-0-7----------------------------------------------------------|
|---3-0-7----------------------------------------------------------|

1st Verse

|------------------------------------------------------------------|
|------------------------------------------------------------------|
|------------------------------------------------------------------|
|------------------------------------------------------------------|
|------------13----------12---------------------------13-----------|
|---0--12-15-----0-12-15-----0-12-15-0-15---0---12-15-----0-12-15--|

|------------------------------------------------------------------|
|------------------------------------------------------------------|
|------------------------------------------------------------------|
|------------------------------------------------------------------|
|---12------------13-----------12--------------------------13------|
|-------0---12-15-----0--12-15-----0-12-15-0-15--0---12-15-----0---|

|------------------------------------------------------------------|
|------------------------------------------------------------------|
|------------------------------------------------------------------|
|---------10-10-10-------------------------------------------------|
|---------10-10-10-------------------------------------------------|
|---12-15-10-10-10-------------------------------------------------|

|------------------------------------------------------------------|
|------------------------------------------------------------------|
|------------------------------------------------------------------|
|------------------------------------------------------------------|
|------------13----------12---------------------------13-----------|
|---0--12-15-----0-12-15-----0-12-15-0-15---0---12-15-----0-12-15--|

|------------------------------------------------------------------|
|------------------------------------------------------------------|
|------------------------------------------------------------------|
|------------------------------------------------------------------|
|---12------------13-----------12--------------------------13------|
|-------0---12-15-----0--12-15-----0-12-15-0-15--0---12-15-----0---|

|------------------------------------------------------------------|
|------------------------------------------------------------------|
|------------------------------------------------------------------|
|---------10-10-10-------------------------------------------------|
|---------10-10-10-------------------------------------------------|
|---12-15-10-10-10-------------------------------------------------|

Chorus

Gtr. 3 (w/dist.)

|------------------------------------------------------------------|
|------------------------------------------------------------------|
|------5----------------5-----------------5----------------5-------|
|---/7---7-5-3-3-----/7---7-5-3-3------/7---7-5-3-3-----/7---7-5-3-|
|----------------5-3--------------5-3---------------5-3------------|
|------------------------------------------------------------------|

|------------------------------------------------------------------|
|------------------------------------------------------------------|
|-----------------------------------------5------------------------|
|---3--5-5-3-3-----3---5-5-3-3---------/7---7-5-3-3-----3-3-5-5-7--|
|--------------5-3---5---------5-0-3-5--------------5-3------------|
|------------------------------------------------------------------|

|------------------------------------------------------------------|
|------------------------------------------------------------------|
|-----5/10---------------------------------------------------------|
|---7--------------------------------------------------------------|
|------------------------------------------------------------------|
|------------------------------------------------------------------|

Gtr. 1

|------------------------------------------------------------------|
|------------------------------------------------------------------|
|------------------------------------------------------------------|
|---8-8-8-8-8-8-8-8-8-8--7-7-7--0-0-0-0-0-0-0-0-0-0-0-0--3-3-3-3-3-|
|---8-8-8-8-8-8-8-8-8-8--7-7-7--0-0-0-0-0-0-0-0-0-0-0-0--3-3-3-3-3-|
|---8-8-8-8-8-8-8-8-8-8--7-7-7--0-0-0-0-0-0-0-0-0-0-0-0--3-3-3-3-3-|

|------------------------------------------------------------------|
|------------------------------------------------------------------|
|------------------------------------------------------------------|
|---3-3-3-3-3--5-5-5-5--0-0-0-0-0-0-0-0-0-0-0-0--------------------|
|---3-3-3-3-3--5-5-5-5--0-0-0-0-0-0-0-0-0-0-0-0--------------------|
|---3-3-3-3-3--5-5-5-5--0-0-0-0-0-0-0-0-0-0-0-0--------------------|

Gtr. 2

|------------------------------------------------------------------|
|------------------------------------------------------------------|
|---10-10-10-10-10-10-(10)-10-10-10-10-10-10-10-10-10-10-10-(10)---|
|------------------------------------------------------------------|
|------------------------------------------------------------------|
|------------------------------------------------------------------|

|------------------------------------------------------------------|
|------------------------------------------------------------------|
|---10-10-10--7-7-7--9-9-9-9-9-9-9-9-9-9-9-9-9-9-9-9-9-9-9-(9)-9-9-|
|------------------------------------------------------------------|
|------------------------------------------------------------------|
|------------------------------------------------------------------|

|------------------------------------------------------------------|
|------------------------------------------------------------------|
|---9-9-9-9--------------------------------------------------------|
|------------------------------------------------------------------|
|------------------------------------------------------------------|
|------------------------------------------------------------------|

Gtr. 3

|------------------------------------------------------------------|
|------------------------------------------------------------------|
|---10-10-10----------10-10-10----------10--------10-10-10---------|
|------------10-10-10----------10-10-10----10h12-----------12-12---|
|------------------------------------------------------------------|
|------------------------------------------------------------------|

|------------------------------------------------------------------|
|------------------------------------------------------------------|
|------10-10-10----------10-10--------12-12bfr(12)-10--------------|
|---12----------12-12-12-------10h12------------------12-(12)-10---|
|------------------------------------------------------------------|
|------------------------------------------------------------------|

|------------------------------------------------------------------|
|------------------------------------------------------------------|
|----------12-12bfr(12)p10-12-(12)-10---14b1/2---------------------|
|---12-10----------------------------------------------------------|
|------------------------------------------------------------------|
|------------------------------------------------------------------|

Gtr. 1

|------------------------------------------------------------------|
|------------------------------------------------------------------|
|-----------------------------7-7-7-7-7-7--------------------------|
|---8-8-8-8-8-8-8-8-8--7-7-7--0-0-0-0-0-0--0-0-0-0-0-0--5-5-5-5-5--|
|---8-8-8-8-8-8-8-8-8--7-7-7--5-5-5-5-5-5--0-0-0-0-0-0--5-5-5-5-5--|
|---8-8-8-8-8-8-8-8-8--7-7-7--0-0-0-0-0-0--0-0-0-0-0-0--5-5-5-5-5--|

|------------------------------------------------------------------|
|------------------------------------------------------------------|
|------------------------------------------------------------------|
|---5-5-5-5-5-5--5/7--7-7-7-7-7-7-7-7-7-7-7-7----------------------|
|---5-5-5-5-5-5--5/7--7-7-7-7-7-7-7-7-7-7-7-7----------------------|
|---5-5-5-5-5-5--5/7--7-7-7-7-7-7-7-7-7-7-7-7----------------------|

Gtr. 2

|------------------------------------------------------------------|
|------------------------------------------------------------------|
|---14-14-14-14-14-(14)-14-14-14--15-15-15-14-14-14-14-14-(14)-----|
|------------------------------------------------------------------|
|------------------------------------------------------------------|
|------------------------------------------------------------------|

|------------------------------------------------------------------|
|------------------------------------------------------------------|
|---10-10-10-10--9-9--12-12-10-10-10--14-14-14-14-14-14-14-14-14---|
|------------------------------------------------------------------|
|------------------------------------------------------------------|
|------------------------------------------------------------------|

|------------------------------------------------------------------|
|------------------------------------------------------------------|
|---14--12-12-12--10-10-10-10-9-9----------------------------------|
|------------------------------------------------------------------|
|------------------------------------------------------------------|
|------------------------------------------------------------------|

Gtr. 3

|------------------------------------------------------------------|
|------------------------------------------------------------------|
|---(14)----------(14)7bf--(7)--------2b1/2--2--(2)---------------|
|------------------------------------------------------------------|
|------------------------------------------------------5bf---(5)---|
|------------------------------------------------------------------|

2nd Verse

Gtrs. 1 and 2

|------------------------------------------------------------------|
|------------------------------------------------------------------|
|------------------------------------------------------------------|
|------------------------------------------------------------------|
|------------13----------12---------------------------13-----------|
|---0--12-15-----0-12-15-----0-12-15-0-15---0---12-15-----0-12-15--|
P.M.-  -- --     - -- --     - -- -- - --   -   -- --     - -- -- 

|------------------------------------------------------------------|
|------------------------------------------------------------------|
|------------------------------------------------------------------|
|------------------------------------------------------------------|
|---12------------13-----------12--------------------------13------|
|-------0---12-15-----0--12-15-----0-12-15-0-15--0---12-15-----0---|
P.M.    -   -- --     -  -- --     - -- -- - --  -   -- --     - 

|------------------------------------------------------------------|
|------------------------------------------------------------------|
|------------------------------------------------------------------|
|---------10-10-10-------------------------------------------------|
|---------10-10-10-------------------------------------------------|
|---12-15-10-10-10-------------------------------------------------|
P.M.-- --

|------------------------------------------------------------------|
|------------------------------------------------------------------|
|------------------------------------------------------------------|
|------------------------------------------------------------------|
|------------13----------12---------------------------13-----------|
|---0--12-15-----0-12-15-----0-12-15-0-15---0---12-15-----0-12-15--|

|------------------------------------------------------------------|
|------------------------------------------------------------------|
|------------------------------------------------------------------|
|------------------------------------------------------------------|
|---12------------13-----------12--------------------------13------|
|-------0---12-15-----0--12-15-----0-12-15-0-15--0---12-15-----0---|

|------------------------------------------------------------------|
|------------------------------------------------------------------|
|------------------------------------------------------------------|
|------------------------------------------------------------------|
|---------12-------------------------------------------------------|
|---12-15----------------------------------------------------------|

Chorus

Gtr. 3 (w/dist.)

|------------------------------------------------------------------|
|------------------------------------------------------------------|
|------5----------------5-----------------5----------------5-------|
|---/7---7-5-3-3-----/7---7-5-3-3------/7---7-5-3-3-----/7---7-5-3-|
|----------------5-3--------------5-3---------------5-3------------|
|------------------------------------------------------------------|

|------------------------------------------------------------------|
|------------------------------------------------------------------|
|-----------------------------------------5------------------------|
|---3--5-5-3-3-----3---5-5-3-3---------/7---7-5-3-3-----3-3-5-5-7--|
|--------------5-3---5---------5-0-3-5--------------5-3------------|
|------------------------------------------------------------------|

|------------------------------------------------------------------|
|------------------------------------------------------------------|
|-----5/10---------------------------------------------------------|
|---7--------------------------------------------------------------|
|------------------------------------------------------------------|
|------------------------------------------------------------------|

Gtr. 1

|------------------------------------------------------------------|
|------------------------------------------------------------------|
|------------------------------------------------------------------|
|---8-8-8-8-8-8-8-8-8-8--7-7-7--0-0-0-0-0-0-0-0-0-0-0-0--3-3-3-3-3-|
|---8-8-8-8-8-8-8-8-8-8--7-7-7--0-0-0-0-0-0-0-0-0-0-0-0--3-3-3-3-3-|
|---8-8-8-8-8-8-8-8-8-8--7-7-7--0-0-0-0-0-0-0-0-0-0-0-0--3-3-3-3-3-|

|------------------------------------------------------------------|
|------------------------------------------------------------------|
|------------------------------------------------------------------|
|---3-3-3-3-3--5-5-5-5--0-0-0-0-0-0-0-0-0-0-0-0--------------------|
|---3-3-3-3-3--5-5-5-5--0-0-0-0-0-0-0-0-0-0-0-0--------------------|
|---3-3-3-3-3--5-5-5-5--0-0-0-0-0-0-0-0-0-0-0-0--------------------|

Gtr. 2

|------------------------------------------------------------------|
|------------------------------------------------------------------|
|---10-10-10-10-10-10-(10)-10-10-10-10-10-10-10-10-10-10-10-(10)---|
|------------------------------------------------------------------|
|------------------------------------------------------------------|
|------------------------------------------------------------------|

|------------------------------------------------------------------|
|------------------------------------------------------------------|
|---10-10-10--7-7-7--9-9-9-9-9-9-9-9-9-9-9-9-9-9-9-9-9-9-9-(9)-9-9-|
|------------------------------------------------------------------|
|------------------------------------------------------------------|
|------------------------------------------------------------------|

|------------------------------------------------------------------|
|------------------------------------------------------------------|
|---9-9-9-9--------------------------------------------------------|
|------------------------------------------------------------------|
|------------------------------------------------------------------|
|------------------------------------------------------------------|

Gtr. 3

|------------------------------------------------------------------|
|------------------------------------------------------------------|
|---10-10-10----------10-10-10----------10--------10-10-10---------|
|------------10-10-10----------10-10-10----10h12-----------12-12---|
|------------------------------------------------------------------|
|------------------------------------------------------------------|

|------------------------------------------------------------------|
|------------------------------------------------------------------|
|------10-10-10----------10-10--------12-12bfr(12)-10--------------|
|---12----------12-12-12-------10h12------------------12-(12)-10---|
|------------------------------------------------------------------|
|------------------------------------------------------------------|

|------------------------------------------------------------------|
|------------------------------------------------------------------|
|----------12-12bfr(12)p10-12-(12)-10---14b1/2---------------------|
|---12-10----------------------------------------------------------|
|------------------------------------------------------------------|
|------------------------------------------------------------------|

Gtr. 1

|------------------------------------------------------------------|
|------------------------------------------------------------------|
|-----------------------------7-7-7-7-7-7--------------------------|
|---8-8-8-8-8-8-8-8-8--7-7-7--0-0-0-0-0-0--0-0-0-0-0-0--5-5-5-5-5--|
|---8-8-8-8-8-8-8-8-8--7-7-7--5-5-5-5-5-5--0-0-0-0-0-0--5-5-5-5-5--|
|---8-8-8-8-8-8-8-8-8--7-7-7--0-0-0-0-0-0--0-0-0-0-0-0--5-5-5-5-5--|

|------------------------------------------------------------------|
|------------------------------------------------------------------|
|------------------------------------------------------------------|
|---5-5-5-5-5-5--5/7--7-7-7-7-7-7-7-7-7-7-7-7----------------------|
|---5-5-5-5-5-5--5/7--7-7-7-7-7-7-7-7-7-7-7-7----------------------|
|---5-5-5-5-5-5--5/7--7-7-7-7-7-7-7-7-7-7-7-7----------------------|

Gtr. 2

|------------------------------------------------------------------|
|------------------------------------------------------------------|
|---14-14-14-14-14-(14)-14-14-14--15-15-15-14-14-14-14-14-(14)-----|
|------------------------------------------------------------------|
|------------------------------------------------------------------|
|------------------------------------------------------------------|

|------------------------------------------------------------------|
|------------------------------------------------------------------|
|---10-10-10-10--9-9--12-12-10-10-10--14-14-14-14-14-14-14-14-14---|
|------------------------------------------------------------------|
|------------------------------------------------------------------|
|------------------------------------------------------------------|

|------------------------------------------------------------------|
|------------------------------------------------------------------|
|---14--12-12-12--10-10-10-10-9-9----------------------------------|
|------------------------------------------------------------------|
|------------------------------------------------------------------|
|------------------------------------------------------------------|

Gtr. 3

|------------------------------------------------------------------|
|------------------------------------------------------------------|
|---(14)----------(14)7bf--(7)--------2b1/2--2--(2)---------------|
|------------------------------------------------------------------|
|------------------------------------------------------5bf---(5)---|
|------------------------------------------------------------------|

Bridge

Gtr. 3

|------------------------------------------------------------------|
|------------------------------------------------------------------|
|------------------------------------------------------------------|
|---12--------------------------------(12)-------------------------|
|------------------------------------------------------------------|
|------------------------------------------------------------------|

Gtrs. 1 and 2

|------------------------------------------------------------------|
|----------------------------------------------------3-(3)-3-------|
|----------------------------------------------------2-(2)-2-------|
|---8-8-8-8-8/12-(12)-12-12-12-12--8--3-3-3--0-(0)--0-(0)-0--3--0-|
|---8-8-8-8-8/12-(12)-12-12-12-12---8--3-3-3--0-(0)--0-(0)-0--3--0-|
|---8-8-8-8-8/12-(12)-12-12-12-12---8--3-3-3--0-(0)--0-(0)-0--3--0-|

|------------------------------------------------------------------|
|------------------------------------------------------------------|
|------------------------------------------------------------------|
|8-8-8-8-8/12-(12)-12-12-12-12--8--3-3-----------------------------|
|8-8-8-8-8/12-(12)-12-12-12-12--8--3-3-----------------------------|
|8-8-8-8-8/12-(12)-12-12-12-12--8--3-3-----------------------------|

|------------------------------------------------------------------|
|---------------3-(3)-3-3-3-3--------------------------------------|
|---------------2-(2)-2-2-2-2--------------------------------------|
|---3--0-(0)-0--0-(0)-0-0-0-0--8-8-8-8-8/12-(12)-12-12-12-12--8---|
|---3--0-(0)-0--0-(0)-0-0-0-0--8-8-8-8-8/12-(12)-12-12-12-12---8---|
|---3--0-(0)-0--0-(0)-0-0-0-0--8-8-8-8-8/12-(12)-12-12-12-12---8---|

|------------------------------------------------------------------|
|-----------------3-(3)-3------------------------------------------|
|-----------------2-(2)-2------------------------------------------|
|---3-3-3--0-(0)--0-(0)-0--0-3-3--0--/5-5-5-5-5-5-5-5--2-2-2-2-2--|
|---3-3-3--0-(0)--0-(0)-0--0-3-3--0--/5-5-5-5-5-5-5-5---2-2-2-2-2--|
|---3-3-3--0-(0)--0-(0)-0--0-3-3--0--/5-5-5-5-5-5-5-5---2-2-2-2-2--|

                     Gtr. 3 pick scrapes
|---------------------------X-------------------------------|
|------------------------------------------------------------------|
|------------------------------------------------------------------|
|---2-2-2------2-2-------------------------------------------------|
|---2-2-2------2-2---------------/12------------------------------|
|---2-2-2------2-2---------------/12------------------------------|

Interlude

Gtrs. 1 and 2

|------------------------------------------------------------------|
|------------------------------------------------------------------|
|------------------------------------------------------------------|
|------------------------------------------------------------------|
|---0-0-0-3-8-8--0-0-0-3-7-7--0-3-0-3--0-0-0-3-8-8--0-0-0-3-7-7----|
|---0-0-0-3-8-8--0-0-0-3-7-7--0-3-0-3--0-0-0-3-8-8--0-0-0-3-7-7----|
P.M.-------      -------      -------  -------      -------

|------------------------------------------------------------------|
|------------------------------------------------------------------|
|------------------------------------------------------------------|
|------------------------------------------------------------------|
|---0-3-0-3--0-0-0-3-8-8--0-0-0-5-3--------------------------------|
|---0-3-0-3--0-0-0-3-8-8--0-0-0-5-3--------------------------------|
P.M -------  -------      -----

Gtr. 1

|------------------------------------------------------------------|
|------------------------------------------------------------------|
|------------------------------------------------------------------|
|---8-8-8-8-8-8-8-8-8-8--7-7-7--0-0-0-0-0-0-0-0-0-0-0-0--3-3-3-3-3-|
|---8-8-8-8-8-8-8-8-8-8--7-7-7--0-0-0-0-0-0-0-0-0-0-0-0--3-3-3-3-3-|
|---8-8-8-8-8-8-8-8-8-8--7-7-7--0-0-0-0-0-0-0-0-0-0-0-0--3-3-3-3-3-|

|------------------------------------------------------------------|
|------------------------------------------------------------------|
|------------------------------------------------------------------|
|---3-3-3-3-3--5-5-5-5--0-0-0-0-0-0-0-0-0-0-0-0--------------------|
|---3-3-3-3-3--5-5-5-5--0-0-0-0-0-0-0-0-0-0-0-0--------------------|
|---3-3-3-3-3--5-5-5-5--0-0-0-0-0-0-0-0-0-0-0-0--------------------|

Gtr. 2

|------------------------------------------------------------------|
|------------------------------------------------------------------|
|---10-10-10-10-10-10-(10)-10-10-10-10-10-10-10-10-10-10-10-(10)---|
|------------------------------------------------------------------|
|------------------------------------------------------------------|
|------------------------------------------------------------------|

|------------------------------------------------------------------|
|------------------------------------------------------------------|
|---10-10-10--7-7-7--9-9-9-9-9-9-9-9-9-9-9-9-9-9-9-9-9-9-9-(9)-9-9-|
|------------------------------------------------------------------|
|------------------------------------------------------------------|
|------------------------------------------------------------------|

|------------------------------------------------------------------|
|------------------------------------------------------------------|
|---9-9-9-9--------------------------------------------------------|
|------------------------------------------------------------------|
|------------------------------------------------------------------|
|------------------------------------------------------------------|


Gtr. 1

|------------------------------------------------------------------|
|------------------------------------------------------------------|
|-----------------------------7-7-7-7-7-7--------------------------|
|---8-8-8-8-8-8-8-8-8--7-7-7--0-0-0-0-0-0--0-0-0-0-0-0--5-5-5-5-5--|
|---8-8-8-8-8-8-8-8-8--7-7-7--5-5-5-5-5-5--0-0-0-0-0-0--5-5-5-5-5--|
|---8-8-8-8-8-8-8-8-8--7-7-7--0-0-0-0-0-0--0-0-0-0-0-0--5-5-5-5-5--|

|------------------------------------------------------------------|
|------------------------------------------------------------------|
|------------------------------------------------------------------|
|---5-5-5-5-5-5--5/7--7-7-7-7-7-7-7-7-7-7-7-7----------------------|
|---5-5-5-5-5-5--5/7--7-7-7-7-7-7-7-7-7-7-7-7----------------------|
|---5-5-5-5-5-5--5/7--7-7-7-7-7-7-7-7-7-7-7-7----------------------|

Gtr. 2

|------------------------------------------------------------------|
|------------------------------------------------------------------|
|---14-14-14-14-14-(14)-14-14-14--15-15-15-14-14-14-14-14-(14)-----|
|------------------------------------------------------------------|
|------------------------------------------------------------------|
|------------------------------------------------------------------|

|------------------------------------------------------------------|
|------------------------------------------------------------------|
|---10-10-10-10--9-9--12-12-10-10-10--14-14-14-14-14-14-14-14-14---|
|------------------------------------------------------------------|
|------------------------------------------------------------------|
|------------------------------------------------------------------|

|------------------------------------------------------------------|
|------------------------------------------------------------------|
|---14--12-12-12--10-10-10-10-9-9----------------------------------|
|------------------------------------------------------------------|
|------------------------------------------------------------------|
|------------------------------------------------------------------|

Gtr. 4

|------------------------------------------------------------------|
|------------------------------------------------------------------|
|------5----------------5-----------------5----------------5-------|
|---/7---7-5-3-3-----/7---7-5-3-3------/7---7-5-3-3-----/7---7-5-3-|
|----------------5-3--------------5-3---------------5-3------------|
|------------------------------------------------------------------|

|------------------------------------------------------------------|
|------------------------------------------------------------------|
|-----------------------------------------5------------------------|
|---3--5-5-3-3-----3---5-5-3-3---------/7---7-5-3-3-----3-3-5-5-7--|
|--------------5-3---5---------5-0-3-5--------------5-3------------|
|------------------------------------------------------------------|

|------------------------------------------------------------------|
|------------------------------------------------------------------|
|-----5/10---------------------------------------------------------|
|---7--------------------------------------------------------------|
|------------------------------------------------------------------|
|------------------------------------------------------------------|

|------------------------------------------------------------------|
|------------------------------------------------------------------|
|---10-10-10----------10-10-10----------10--------10-10-10---------|
|------------10-10-10----------10-10-10----10h12-----------12-12---|
|------------------------------------------------------------------|
|------------------------------------------------------------------|

|------------------------------------------------------------------|
|------------------------------------------------------------------|
|------10-10-10----------10-10--------12-12bfr(12)-10--------------|
|---12----------12-12-12-------10h12------------------12-(12)-10---|
|------------------------------------------------------------------|
|------------------------------------------------------------------|

|------------------------------------------------------------------|
|------------------------------------------------------------------|
|----------12-12bfr(12)p10-12-(12)-10---14b1/2---------------------|
|---12-10----------------------------------------------------------|
|------------------------------------------------------------------|
|------------------------------------------------------------------|

Gtr. 3

|------------------------------------------------------------------|
|------------------------------------------------------------------|
|---(14)----------(14)7bf--(7)--------2b1/2--2--(2)---------------|
|------------------------------------------------------------------|
|------------------------------------------------------5bf---(5)---|
|------------------------------------------------------------------|

Gtr. 5 (w/dist.)

|------------------------------------------------------------------|
|---10-13-10----------------10-10-10-------------------------------|
|------------12-10-10----------------12-10-10----------------------|
|---------------------12-10-------------------12-10----------------|
|------------------------------------------------------------------|
|------------------------------------------------------------------|

|------------------------------------------------------------------|
|---10-13-10----------------10-10-10-------------------------------|
|------------12-10-10----------------12-10-10----------------------|
|---------------------12-10-------------------12-10----------------|
|------------------------------------------------------------------|
|------------------------------------------------------------------|

|------------------------------------------------------------------|
|----------------------------------------------------10-13-10------|
|---12-12-10-10-------------12-12-10-10-----------------------12---|
|---------------12----10-12-------------12----10-12----------------|
|------------------12----------------------12----------------------|
|------------------------------------------------------------------|

|---------------------------------------13-13-13---------13-13-13--|
|---------------------------10-10-13/15----------13-(13)-----------|
|---10-10-------10-10-12-12----------------------------------------|
|---------12-10----------------------------------------------------|
|------------------------------------------------------------------|
|------------------------------------------------------------------|

|--------13-13-------13-13-13---------13-13-13-------13-13---------|
|---13---------15-15----------15-(15)----------15----------13------|
|------------------------------------------------------------------|
|------------------------------------------------------------------|
|------------------------------------------------------------------|
|------------------------------------------------------------------|

|---15bf-(15)-r15p13---------------------------15bf-(15)-r15p13----|
|--------------------15--(15)--13--(13)--15-13---------------------|
|------------------------------------------------------------------|
|------------------------------------------------------------------|
|------------------------------------------------------------------|
|------------------------------------------------------------------|

                                 Gtr. 5
|---15--(15)--13--(13)---17-(17)|--(17)----------------------------|
|-------------------------------|----------------------------------|
|-------------------------------|--(14)----------------------------|
|-------------------------------|----|-----------------------------|
|-------------------------------|----|-----------------------------|
|-------------------------------|----|-----------------------------|
                                 Gtr. 4

Gtr. 3 (w/wah pedal)

                     1 1/4  Gtrs. 1 and 2
|--------------------------|---------------------------------------|
|---13---------------(13)--|---------------------------------------|
|--------------------------|---------------------------------------|
|--------------------------|---------------------------------------|
|--------------------------|---0--0-3-8--0-0-0-3-7--0-3-0-3--------|
|--------------------------|---0--0-3-8--0-0-0-3-7--0-3-0-3--------|
P.M.                              - -    - - - -    - - - -

|------------------------------------------------------------------|
|------------------------------------------------------------------|
|------------------------------------------------------------------|
|------------------------------------------------------------------|
|---0--0-3-8--0-0-0-3-7--0-3-3---0--0-3-8--0-0-0-3-7--0-3-0-3------|
|---0--0-3-8--0-0-0-3-7--0-3-3---0--0-3-8--0-0-0-3-7--0-3-0-3------|
P.M.   - -    - - - -    - - -      - -    - - - -    - - - -

|------------------------------------------------------------------|
|------------------------------------------------------------------|
|------------------------------------------------------------------|
|------------------------------------------------------------------|
|---0--0-3-8---0-0-0--3-7--0-3-------------------------------------|
|---0--0-3-8---0-0-0--3-7--0-3-------------------------------------|
P.M.   - -     - - -  -    


NOTATION GUIDE

P= Pull off
H= Hammer-on
b= bend
r= release
bfr= Bend full then release
b1/2r= Bend 1/2 then release


Текст, аккорды и табулатура для песни "Remember", исполняет "Disturbed".
Используемые в песне аккорды можно найти в разделе Как брать аккорды. Аккорды для шестиструнной гитары. Другие песни можно найти на нашем сайте, воспользовавшись алфавитным указателем вверху страницы.


Слушать онлайн Remember


DisturbedRemember на Яндекс.Музыке


 
Ошибка в тексте? Выделите ошибку и нажмите Ctrl+Enter