Tabbed by Adalberto Loredo ([email protected])


Disturbed - Remember

Tune down half a step (drop Db)
 
Low to high 
 6.- Db
 5.- Ab
 4.- db
 3.- Gb
 2.- Bb
 1.- Eb

[----------------------------------------------------------------------------------------------------Repeat twice-----]
 eb----------------------------|----------------------------|----------------------------|---------------------------|
 bb----------------------------|----------------------------|----------------------------|---------------------------|
 gb----------------------------|----------------------------|----------------------------|---------------------------|
 db----------------------------|----------------------------|----------------------------|---------------------------|
 Ab--0-----8---------7-2-3-2-3-|-0-----8---------7-2-3----3-|-0-----8---------7-2-3-2-3--|-0-----8---------7-x-2-x-3-|
 Db--0-0-0-8-0-0-0-0-7-2-3-2-3-|-0-0-0-8-0-0-0-0-7-2-3----3-|-0-0-0-8-0-0-0-0-7-2-3-2-3--|-0-0-0-8-0-0-0-0-7-x-2-x-3-|
       . .   . . . .   . . . .     . .   . . . .                . .   . . . .   . . . .      . .   . . . .

[--------------------------------------------------------------------------------------------             
 eb-----------------------------------------|-----------------------------------------------|
 bb-----------------------------------------|-----------------------------------------------|
 gb-----------------------------------------|-----------------------------------------------|
 db-----------------------------------------|-----------------------------------------------|
 Ab-----------13----------12----------------|----------13---------12----------13---------12-|
 Db--0--12-14----0-12-14-----0--12-14-12-14-|0--12-14-----0-12-14----0--12-14----0-12-14----|

 ---------------------------------Repeat twice--]
 eb--------------------------------------------|
 bb--------------------------------------------|
 gb--------------------------------------------|
 db--------------------------------------------|
 ab-----------------------13----------10-10-10-|
 Db-0-12-14-12-14-0-12-14----0-12-14--10-10-10-|

 
 eb----------------------------|----------------------------|----------------------------|---------------------------|
 bb----------------------------|----------------------------|----------------------------|---------------------------|
 gb----------------------------|----------------------------|----------------------------|---------------------------|
 db----------------------------|----------------------------|----------------------------|---------------------------|
 Ab--8---------------------7-7-|-0--------------------------|-3--------------/5----------|-0-------------------------|
 Db--8---------------------7-7-|-0--------------------------|-3--------------/5----------|-0-------------------------|

 eb----------------------------|----------------------------|----------------------------|---------------------------|
 bb----------------------------|----------------------------|----------------------------|---------------------------|
 gb----------------------------|----------------------------|----------------------------|---------------------------|
 db----------------------------|----------------------------|----------------------------|---------------------------|
 Ab--8---------------------7-7-|-0--------------------------|-5--------------------------|-7-------------------------|
 Db--8---------------------7-7-|-0--------------------------|-5--------------------------|-7-------------------------|


 eb-----------------------------------------|-----------------------------------------------|
 bb-----------------------------------------|-----------------------------------------------|
 gb-----------------------------------------|-----------------------------------------------|
 db-----------------------------------------|-----------------------------------------------|
 Ab-----------13----------12----------------|----------13---------12----------13---------12-|
 Db--0--12-14----0-12-14-----0--12-14-12-14-|0--12-14-----0-12-14----0--12-14----0-12-14----|

 eb--------------------------------------------|
 bb--------------------------------------------|
 gb--------------------------------------------|
 db--------------------------------------------|
 ab-----------------------13----------10-10-10-|
 Db-0-12-14-12-14-0-12-14----0-12-14--10-10-10-|

 eb-----------------------------------------|-----------------------------------------------|
 bb-----------------------------------------|-----------------------------------------------| 


Текст, аккорды и табулатура для песни "Remember", исполняет "Disturbed".
Используемые в песне аккорды можно найти в разделе Как брать аккорды. Аккорды для шестиструнной гитары. Другие песни можно найти на нашем сайте, воспользовавшись алфавитным указателем вверху страницы.


Слушать онлайн Remember


DisturbedRemember на Яндекс.Музыке


 
Ошибка в тексте? Выделите ошибку и нажмите Ctrl+Enter