This is the whole song, correctly. 
[[email protected]] < any questions, heres email.

Tune: (Db Ab Db Gb Bb Eb)
x = palm mute
/ = slide up
 = slide down
| = start/end riff

[Intro Riff]
Eb|------------------------------------------------------------------
Bb|------------------------------------------------------------------
Gb|------------------------------------------------------------------
Db|------------------------------------------------------------------
Ab|12-12-12-12-12-12-12-12-12-12-12-12-15-15-15-15-15-15-18-18-18-18-
Db|0--0--0--13-0--13-0--0--0--13-0--13-0--0--0--13-0--13-0--0--0--13-

 --------------------------------------------------------------------
 --------------------------------------------------------------------
 --------------------------------------------------------------------
 --------------------------------------------------------------------
 17-17-12-12-12-12-12-12-12-12-12-12-12-12-15-15-15-15-15-15-18-18-18
 0--13-0--0--0--13-0--13-0--0--0--13-0--13-0--0--0--13-0--13-0--0--0-

 -------|
 -------|
 -------|
 -------|
 -13-10-|
 -13-10-|
[Riff 2]
Eb|------------------------------------------------------------------|
Bb|------------------------------------------------------------------|
Gb|------------------------------------------------------------------|
Db|------------------------------------------------------------------|
Ab|-------------------------------------------------------------13-10|
Db|-0x-0x-0x-0x-0x-0x-0x-0x-0x-0x-0x-0x-0x-0x-0x-0x-0x-0x-0x-0x-13-10|
    ^Open string, palm mute the whole riff. This isnt the exact
     amount of times to play each note, easy to figure out. Play the 
     riff 2 times.
[Riff 3]                                                      [Riff 4]
Eb|----------------------------------------------------------------|--
Bb|----------------------------------------------------------------|--
Gb|-------------------------------------------------------5-5-5-5/-|10
Db|-------7-1-1-1-1-3-8-7-1-1-1-1-3-1-7-1-1-1-1-3-8-7-3-3-3-3/-|10
Ab|-13-10-7-1-1-1-1-3-8-7-1-1-1-1-3-1-7-1-1-1-1-3-8-7-3-3-3-3/-|8-
Db|-13-10-7-1-1-1-1-3-8-7-1-1-1-1-3-1-7-1-1-1-1-3-8-7-3-3-3-3/-|8-

 --------------------------------------------------------------------
 --------------------------------------------------------------------
 10-10-10-10-10-5-5/-7-7-7-5-5-5/-10-10-10-10-10-10/-------12-12-12-
 10-10-10-10-10-3-3/-5-5-5-3-3-3/-10-10-10-10-10-10/-14-12-10-10-10-
 8--8--8--8--8--3-3/-5-5-5-3-3-3/-8--8--8--8--8--8-/-12-12-10-10-10-
 8--8--8--8--8--3-3/-5-5-5-3-3-3/-8--8--8--8--8--8-/-12-12-10-10-10-
          [Riff 5]
 ---------|-------------------------------------------------|
 ---------|-------------------------------------------------|
 12-12-12-|-------------------------------------------------|
 12-12-12-|-8-8-8-8-8-8-8-8-8-8-8-8-8-8-8-8-8-8-8-8-8-8-8-8-|
 10-10-10-|-8-8-8-8-8-8-8-8-8-8-8-8-8-8-8-8-8-8-8-8-8-8-8-8-|
 10-10-10-|-8-8-8-8-8-8-8-8-8-8-8-8-8-8-8-8-8-8-8-8-8-8-8-8-|
Play Riff 4 twice. After this riff 5 go back to intro riff, and play everything
all over again.
[Riff 6]
Eb|-------------------------------------------------------------------
Bb|-------------------------------------------------------------------
Gb|-------------------------------------------------------------------
Db|-0-----------------------------------------------------------------
Ab|-0-----------------------------------------------------------------
Db|-0--12-2-2-0-2--2-2-0-2--0-2-0-2--2-0-2--2-0-2-3--2-2-0-2--2-2-0-2
 Pick up here after 2nd time around.
                            [Riff 7] 
 ---------------------------|-----------------------------------------
 ---------------------------|-----------------------------------------
 ---------------------------|-----------------------------------------
 ---------------------------|2-2-0-2--2-2-0-2--0-2-0-2--2-0-2--2-0-2-3
 ------------------3x-3x-3x-|2-2-0-2--2-2-0-2--0-2-0-2--2-0-2--2-0-2-3
 0-2-0-2--2-2-0-2--3x-3x-3x-|2-2-0-2--2-2-0-2--0-2-0-2--2-0-2--2-0-2-3
                              
 ----------------------------------------|
 ----------------------------------------|
 ----------------------------------------|
 2-2-0-2--2-2-0-2--0-2-0-2--2-0-2--3-3-3-|
 2-2-0-2--2-2-0-2--0-2-0-2--2-0-2--3-3-3-|
 2-2-0-2--2-2-0-2--0-2-0-2--2-0-2--3-3-3-|
Play riff 7 twice, then repeat riff 4 twice.
[Riff 8]
Eb|-------------------------------------------------|
Bb|-------------------------------------------------|
Gb|-10-10--------10-10--------10-10--5-5-7-7-7-5-5-|
Db|-10-10--------10-10--------10-10--3-3-5-5-5-3-3-|
Ab|-8--8--8x-8x--8--8--8x-8x--8--8---3-3-5-5-5-3-3-|
Db|-8--8--8x-8x--8--8--8x-8x--8--8---3-3-5-5-5-3-3-|
 Back to Riff 5 after playing Riff 8 twice.
[Riff 9]
Eb|----------------------------------------------------------|
Bb|----------------------------------------------------------|
Gb|----------------------------------------------------------|
Db|----------------------------------------------------------|
Ab|-0x-0x-0x-0x-0x-0x-0x-0x-0x-0x-0x-0x-0x-0x-0x-0x-0x-0x-0x-|
Db|-0x-0x-0x-0x-0x-0x-0x-0x-0x-0x-0x-0x-0x-0x-0x-0x-0x-0x-0x-|

   Thats the whole song, enjoy.


Текст, аккорды и табулатура для песни "Prayer", исполняет "Disturbed".
Используемые в песне аккорды можно найти в разделе Как брать аккорды. Аккорды для шестиструнной гитары. Другие песни можно найти на нашем сайте, воспользовавшись алфавитным указателем вверху страницы.


Слушать онлайн Prayer


DisturbedPrayer на Яндекс.Музыке


 
Ошибка в тексте? Выделите ошибку и нажмите Ctrl+Enter