Mistress-Disturbed
Believe

Drop Db:
Db Ab Db Gb Bb Eb


Intro: 

Fig. 1                                                         end

e-----------------------------------------------------------------
b-----------------------------------------------------------------
g-----------------------------------------------------------------
d-2---2--2/9-9-9-9-5-5-5-7-7-5---2---2--2/9-9-9-9-5-5-5-7-7-10-10-
a-2---2--2/9-9-9-9-5-5-5-7-7-5---2---2--2/9-9-9-9-5-5-5-7-7-10-10-
d-2---2--2/9-9-9-9-5-5-5-7-7-5-2-2---2--2/9-9-9-9-5-5-5-7-7-10-10-

e-----------------------------------------------------------------
b-----------------------------------------------------------------
g-----------------------------------------------------------------
d-2---2--2/9-9-9-9-5-5-5-7-7-5---2---2--2/9-9-9-9-5-5-5--12~~~~~~-
a-2---2--2/9-9-9-9-5-5-5-7-7-5---2---2--2/9-9-9-9-5-5-5-----------
d-2---2--2/9-9-9-9-5-5-5-7-7-5-2-2---2--2/9-9-9-9-5-5-5-----------

Fig. 1 x2

Verses: 
x2,      pm
e-----------------------------------------------------------------
b-----------------------------------------------------------------
g-----------------------------------------------------------------
d-2---2--------------------------2---2----------------------------
a-2---2--------------------------2---2----------------------------
d-2---2--2/9-9-9-9-5-5-5-7-7-5-0-2---2--2/9-9-9-9-5-5-5-7-7-10-10-

Fig. 1 x2 with

x2
e-----------------------------------------------------------------
b-----------------------------------------------------------------
g-----------------------------------------------------------5-5---
d-2---2--2/9-9-9-9-5-5-5-7-7-5-0-2---2--2/9-9-9-9-5-5-5-7-7-------
a-2---2--------------------------2---2----------------------------
d-2---2--------------------------2---2----------------------------

Chorus: x2

e----------------------------------------------------------
b----------------------------------------------------------
g------------------------------2---------------------------
d-9-----x-x-x------------------0-----x-x-x-5---------------
a-9-----x-x-x-4---5---4---x-x--0-----x-x-x-5---7----5-2----
d-9-----x-x-x-4---4---4---x-x--0-----x-x-x-5---5----5-2----

e----------------------------------------------------------
b----------------------------------------------------------
g------------------------------2---------------------------
d-9-----x-x-x------------------0-----x-x-x-5---------------
a-9-----x-x-x-4---5---4---x-x--0-----x-x-x-5---7----9--5---
d-9-----x-x-x-4---4---4---x-x--0-----x-x-x-5---5----5--5---

then,

1st ending
e----------------------------------------------------------
b----------------------------------------------------------
g----------------------------------------------------------
d----------------------------------------------------------
a-7----7--7--7----7-7---7--7--7----7--7--5----5---7-5-5-5--
d-6----6--6--6----6-6---6--6--5----5--5--5----5---5-5-5-5--

2nd ending
e----------------------------------------------------------
b----------------------------------------------------------
g----------------------------------------------------------
d----------------------------------------------------------
a-7----7--7--7----7-7---7--7--7----7--7--5----5---5---5----
d-6----6--6--6----6-6---6--6--5----5--5--5----5---5---5----

let ring
e-----------------------------------
b-----------------------------------
g-----------------------------------
d-3---------------------------------
a-2---------------------------------
d-----------------------------------

Bridge:

x3
e-----------------------------------------------------------------
b---0---------------3---2-------2---------------------------------
g-------0-------0-----4-----2-------------------------------------
d-----4-----4-----4-----------4----------5---5-----0-----4----4---
a-2-----------2--------------------5-----5---5-----0-----5----4---
d----------------------------------5-----5---5-----0-----4----4---

then,
e-----------------------------------------------------------------
b---0---------------3---2-------2---------------------------------
g-------0-------0-----4-----2-------------------------------------
d-----4-----4-----4-----------4----------5---5-----0-----4--------
a-2-----------2--------------------5-----5---5-----0-----5----4---
d----------------------------------5-----5---5-----0-----4----4---

Interlude:

gtr. 1

e-----------------------------------------------------------------
b-----------------------------------------------------------------
g-----------------------------------------------------------------
d-----------------------------------------------------------------
a-2--2------------2--2-------------2--2------------2--2-----------
d-2--2------------2--2-------------2--2------------2--2-----------

gtr. 2 (w/ chorus effect)

e-----------------------------------------------------------------
b-----------------------------------------------------------------
g--------3----------------6----------------3---------------6------
d-----------------------------------------------------------------
a-----------------------------------------------------------------
d--------2----------------5----------------2---------------5------

Outro Chorus:

e-----------------------------------------------------------------
b-----------------------------------------------------------------
g-----------------------------------------------------------------
d-2---2--2/9-9-9-9-5-5-5-7-7-5---2---2--2/9-9-9-9-5-5-5-7-7-10-10-
a-2---2--2/9-9-9-9-5-5-5-7-7-5---2---2--2/9-9-9-9-5-5-5-7-7-10-10-
d-2---2--2/9-9-9-9-5-5-5-7-7-5-2-2---2--2/9-9-9-9-5-5-5-7-7-10-10-

e-----------------------------------------------------------------
b-----------------------------------------------------------------
g-----------------------------------------------------------------
d-2---2--2/9-9-9-9-5-5-5-7-7-5---2---2--2/9-9-9-9-5-5-5-----------
a-2---2--2/9-9-9-9-5-5-5-7-7-5---2---2--2/9-9-9-9-5-5-5-----------
d-2---2--2/9-9-9-9-5-5-5-7-7-5-2-2---2--2/9-9-9-9-5-5-5-/14-------

x2
e-----------------------------------------------------------------
b-----------------------------------------------------------------
g-----------------------------------------------------------------
d-2---2--2/9-9-9-9-5-5-5-7-7-5---2---2--2/9-9-9-9-5-5-5-7-7-10-10-
a-2---2--2/9-9-9-9-5-5-5-7-7-5---2---2--2/9-9-9-9-5-5-5-7-7-10-10-
d-2---2--2/9-9-9-9-5-5-5-7-7-5-2-2---2--2/9-9-9-9-5-5-5-7-7-10-10-

e-----------------------------------
b-----------------------------------
g-----------------------------------
d-2---2-----------------------------
a-2---2-----------------------------
d-2---2-----------------------------


that’s all

*from the Disturbed tab book*

trevor jones
[email protected]


Текст, аккорды и табулатура для песни "Mistress", исполняет "Disturbed".
Используемые в песне аккорды можно найти в разделе Как брать аккорды. Аккорды для шестиструнной гитары. Другие песни можно найти на нашем сайте, воспользовавшись алфавитным указателем вверху страницы.


Слушать онлайн Mistress


DisturbedMistress на Яндекс.Музыке


 
Ошибка в тексте? Выделите ошибку и нажмите Ctrl+Enter